Guitaretab - guitar tabs
Song name
# A B C D E F G H I J K L M N O P Q R S T U V W X Y Z

Grateful Dead - Morning Dew tab

E----2-|-------|------|------------------|
B----3-|-------|------|------------------|
G----2-|-------|------|------------------|
D----0-|-------|----3-|-------------2--0-|
A------|-0-2-3-|-3----|-------0--3-------|
E------|-------|------|-1--3-------------|

E-----------------|------------------------|
B----------3p1--3-|-------1-------1--------|
G-2p0--2----------|--0h2-----0h2----0h2----|
D-----------------|----------------------0-|
A-----------------|------------------------|
E-----------------|------------------------|

E----10p8--10--8---8p7-----7h8--7---------------------------|
B----------------------------------10--8--10----------------|
G-----------------------------------------------------------|
D-----------------------------------------------------------|
A-----------------------------------------------------------|
E-----------------------------------------------------------|

D                  C       G      D
Walk me out in the morning dew my honey,
D                  C       G     D
Walk me out in the morning dew today.
F                           C       Em     D
I can't walk you out in the morning dew my honey,
F                           C       Em    D
I can't walk you out in the morning dew today.
[ Tab from: http://www.guitaretab.com/g/grateful-dead/7283.html ]
I thought I heard a baby cry this morning,
I thought I heard a baby cry this today.
You didn't hear no baby cry this morning,
You didn't hear no baby cry today.

Where have all the people gone my honey,
Where have all the people gone today.
There's no need for you to be worrying about all those people,
You never see those people anyway.

I thought I heard a young man moan this morning,
I thought I heard a young man moan today.
I thought I heard a young man moan this morning,
I can't walk you out in the morning dew today.

E---------------------------------------------------8----8--9--10-|
B--------------------------------------7---8--8^10----10-------10-|
G--------------------------6--7---7^9--------------------------11-|
D-0--2--4--5^7--10--7--10--------------------------------------12-|
A--------------------------------------------------------------12-|
E--------------------------------------------------------------10-|

Guitar 2 - 2X

                             D (BOLD, HARD, STROKE)
-----------------------------2-|
-----------------------------3-|
-----------------------------2-|
0-2---0----------------------0-|
--3---2-----0--3--0--3--4------|
----------3--------------------|

Walk me out in the morning dew my honey,
Walk me out in the morning dew today.
I'll walk you out in the morning dew my honey,
I guess it doesn't really matter anyway,
I guess it doesn't matter anyway,
I guess it doesn't matter anyway,
Guess it doesn't matter anyway.
Related for Morning Dew tab
Morning Dew chords by Grateful Dead