Song name
# A B C D E F G H I J K L M N O P Q R S T U V W X Y Z

Grateful Dead - Slipknot tab

I noticed, when reading the Help On the Way tab, that there wasn't a correct Slipknot 
 I only know part, but I hope it helps.  Here, Jerry uses alot of dim arpeggios; in fact, 
all this part really is, along with a few triads.


 Fm
e--8--8----8--------------------------------------------------5-8-5--5------|
B--9--9----9-------------------------------------------------7-----7--7---7-|
G--10-10---10---------------------------------------------5-8-------8--8-5--|
D--10-10---10----------10-8------------------------10-8---------------------|
A------------------8-11----10-------10-8----10(h)11-------------------------|
E----------------------------11-8-11----------------------------------------|


e-----------------------------------------------7-10-7---7-------------------|
B-8-5------------------------------------------9------9---9----9----------12-|
G----7---7-5------7-5----------------7-5---7-10--------10--10-7-10-7--7/9----|
D-----5-8----8-5-8---7-----7-5--8-5-8-------------------------------9--------|
A---------------------8-5-8--------------------------------------------------|
E----------------------------------------------------------------------------|

e-10-17-14-------------15-12-------------------------------------------------|
B---------15--17-14---------13--15-12----------------------------------------|
G-----------16-----14---------14-----12--14-11----12-------7-----------------|
D--------------------16----------------14-----12----12-10---9----7(tr)9------|(7)
A-----------------------------------------------14-------12--10-7------------|
E----------------------------------------------------------------------------|


It kind've repeats after that, and I can't figure out the rest.  Sorry.
Tap to rate this tab
# A B C D E F G H I J K L M N O P Q R S T U V W X Y Z