Song name
# A B C D E F G H I J K L M N O P Q R S T U V W X Y Z

Grateful Dead - Palying In The Band tab

-------------------------------------------------------------------------------
			     SONG NAME - Band Name
-------------------------------------------------------------------------------
Tabbed by:
Email:

Tuning:
Intro
e|-------------------------5--5-3---3p2p0------------------------------------|
B|---------------------3-2-3----3--------3-----------------------------------|
G|-------3------3----2-----0----0--------------------------------------------|
D|-----2---2---2-2-0---------------------------------------------------------|
A|---0-------0---------------------------------------------------------------|
E|---------------------------------------------------------------------------|

e|-------------------------5--5-3---3p2p0------------------------------------|
B|---------------------3-2-3----3--------3-----------------------------------|
G|-------3------3----2-----0----0--------------------------------------------|
D|-----2---2---2-2-0---------------------------------------------------------|
A|---0-------0---------------------------------------------------------------|
E|---------------------------------------------------------------------------|


Verse
e|------0---2--2--0-------------0---2----0---2--0----------------------------|
B|--3-3---3--3-----3--0--3---33---3---3----3------3--0--3--------------------|
G|---------------------------------------------------------2-----------------|
D|------------------------------------------------------------4--------------|
A|---------------------------------------------------------------------------|
E|---------------------------------------------------------------------------|


e|-------0----2----2--0---2-0------------------------------------------------|
B|-3--3-----3---3-------3-----3-0-3------------------------------------------|
G|---------------------------------------------------------------------------|
D|---------------------------------------------------------------------------|
A|---------------------------------------------------------------------------|
E|---------------------------------------------------------------------------|

e|------0---2---2--(2)--0-2-0------------------------------------------------|
B|-3-3----3---3---------------3--0----3--------------------------------------|
G|---------------------------------------2-----------------------------------|
D|------------------------------------------4--------------------------------|
A|---------------------------------------------------------------------------|
E|---------------------------------------------------------------------------|

Chorus
e|--0-----2--0----------0--------2--0------------------1---------------------|
B|-----3-------3--0--3-----3----------3-0-3-----0p20-2---0p2p0--2------------|
G|-------------------------------------------0-------------------------------|
D|---------------------------------------------------------------------------|
A|---------------------------------------------------------------------------|
E|---------------------------------------------------------------------------|

e|---------------------------------------------------------------------------|
B|-------------------------1-------------------------------------------------|
G|--0-0p20-2-0-2----0p2p0-2---0p2p0-2--0-0p2p0-2-0-2-------------------------|
D|---------------0-----------------------------------------------------------|
A|---------------------------------------------------------------------------|
E|---------------------------------------------------------------------------|

e|--------------------------5---5--3--3p2p0-----2---------------------------------------|
B|------3-------3------3-2--3------3--------3---3---------------------------------------|
G|----2---2---2---2--2------0------0------------2---------------------------------------|
D|--0-------0-------0---------------------------0---------------------------------------|
A|--------------------------------------------------------------------------------------|
E|--------------------------------------------------------------------------------------|


| /  slide up
| \  slide down
| h  hammer-on
| p  pull-off
| ~  vibrato
| +  harmonic
| x  Mute note
===============================================================================
Tap to rate this tab
# A B C D E F G H I J K L M N O P Q R S T U V W X Y Z