Guitaretab - guitar tabs
Song name
# A B C D E F G H I J K L M N O P Q R S T U V W X Y Z

Grateful Dead - Brok Down Palace tab

4:23
E|------------------------------------------------------------------------|
B|---------15--15--X--15~-----------------12-----------12-----------------|
G|--/16---------------------14-P-12---14------14---14------14-P-12--------|
D|------------------------------------------------------------------14~~--|
A|------------------------------------------------------------------------|
E|------------------------------------------------------------------------|



E|----------------15-P-14--------|
B|-------15~--15------------17~--|
G|--/16--------------------------|
D|-------------------------------|
A|-------------------------------|
E|-------------------------------|


[ Tab from: http://www.guitaretab.com/g/grateful-dead/89761.html ]
						4:39
E|---------------------------------------------------|
B|---------------------------------------------------|
G|--14-/-16--16--14--12~-----14-H-15-H-16--12~~~-----|
D|---------------------------------------------------|
A|---------------------------------------------------|
E|---------------------------------------------------|



  4:41
E|----------------------------------------------------------------|
B|-12--12---15--15~~---15--12--12~-------15-P-12--17~~---15-------|
G|------------------------------------------------------------16--|
D|----------------------------------------------------------------|
A|----------------------------------------------------------------|
E|----------------------------------------------------------------|



						   4:58
E|-------------------------------------------------------|
B|----------15--17--15-----------------------------------|
G|--14-/-16-------------16--14~~---12-H-14-P-12----12~~--|
D|-------------------------------------------------------|
A|-------------------------------------------------------|
E|-------------------------------------------------------|
Related for Brok Down Palace tab