Song name
# A B C D E F G H I J K L M N O P Q R S T U V W X Y Z

Grateful Dead - Samson And Delilah tab

Bridge

|---2/3--2/3--2-2-3---------2-3--|
|---2/3--2/3--4-4-5---3-4-5-2-3--|
|---3/4--3/4--4-4-5---4-5-6-3-4--|
|---4/5--4/5--4-4-5---3-4-5-4-5--|
|-------------2-2-3--------------|
|--------------------------------|
    If I...

Riff

|--------------------------------------------------------------|
|--------------------------------------------------------------|
|---------------4------------------------4---------------------|
|---------------------5p3--------------------------------------|
|-----------4h5------------5-3\1-----4h5----3h5-2h3-1h2--------|
|--------------------------------3---------------------3-3-3---|
Delilah was a...

sometimes played as the riff

|-------------------------------------------------|
|-------------------------------------------------|
|---5b7b5-------5p3--------4----------------------|
|-------------------5-----------------------------|
|----------------------4h5----3h5-2h3-1h2---------|
|-----------------------------------------3-3-3---|

Solo Structure

|--------13-------------------------13-------------------|
|---/15-----15--13h15p13-12----15-----15-13-12-----------|
|----------------------------------------------------12--|
|----------------------------------------------12-15-----|
|--------------------------------------------------------|
|--------------------------------------------------------|

|-------------------15p13----15-----15/19-15-13----------13-15\---|
|---15p13-12-15-----------15--------------------15p13-15----------|
|-----------------------------------------------------------------|
|-----------------------------------------------------------------|
|-----------------------------------------------------------------|
|-----------------------------------------------------------------|
Tap to rate this tab
 
# A B C D E F G H I J K L M N O P Q R S T U V W X Y Z