Song name
# A B C D E F G H I J K L M N O P Q R S T U V W X Y Z

Gratitude - If Ever tab

If Ever (Acoustic)
Gratitude

Guitar One (E A D G B E) Forte
Guitar Two (E A D G B E) Mezzo Forte

-INTRO-

Guitar One:
   Dsus2
E|------------------|
B|-^3---3--3-3--3---|
G|-|2---2--2-2--2-2-|
D|-|0---0--0-0--0-0-|
A|-|0---0--0-0--0-0-|
E|-|0---0-----------|

Guitar Two:
   Dsus2
E|-^0---0--0-0-0----|
B|-|3---3--3-3--3---|
G|-|2---2--2-2---2~-|
D|-|0---0-----------|
A|-|0---0-----------|
E|-|0---0-----------|
_____________________

Guitar One:
   Dsus2
E|---------------------||
B|-^3---3--3-3-3-3--3--||
G|-|2---2--2-2-3-2--2--||
D|-|0---0--0-0-0-0--0--||
A|-|0---0--0-0-0-0--0--||
E|-|0---0------------0-||

Guitar Two:
   Dsus2
E|-|0---0--0-0-x-x-x-x-||
B|-|3---3--3-3-3-3-3-3-||
G|-v2---2--2-2-2-2-2-2-||
D|------0--------------||
A|------0--------------||
E|---------------------||
________________________

-VERSE-

Guitar One And Two:
   Bm
E||---2--2-2-2-2--2--x-x-|
B||o--3--3-3-3-3--3--x-x-|
G||---4--4-4-4-4--4--x-x-|
D||---4--4-4-4-4--4--x-x-|
A||o--2--2-2-2-2--2--x-x-|
E||------------------x-x-|
_________________________
   Asus2
E|-0--0--0-0-0-0-|
B|-0--0--0-0-0-0-|
G|-2--2--2-2-2-2-|
D|-2--2--2-2-2-2-|
A|-0--0--0-0-0-0-|
E|---------------|
__________________
   G         Em7
E|-3--3-3-3--0-0-0-0-|
B|-3--3-3-3--3-3-3-3-|
G|-0--0-0-0--0-0-0-0-|
D|-0--0-0-0--x-x-x-x-|
A|-2--2-2-2--2-2-2-2-|
E|-3--3-3-3--0-0-0-0-|
______________________
  
   G
E|-3--3-3-3--3-3-3-3--||
B|-3--3-3-3--3-3-3-3-o||
G|-0--0-0-0--0-0-0-0--||
D|-0--0-0-0--0-0-0-0--||
A|-2--2-2-2--2-2-2-2-o||
E|-3--3-3-3--3-3-3-3--||
                      x2
_________________________

   Em       F|m       G
E|-0--0-0-0--2-2-2-2-^3-------||
B|-0--0-0-0--2-2-2-2-|3-------||
G|-0--0-0-0--2-2-2-2-|0-------||
D|-2--2-2-2--4-4-4-4-|0-------||
A|-2--2-2-2--0-0-0-0-|2-------||
E|-0--0-0-0--2-2-2-2-|3-------||
________________________________

-CHORUS I-

Guitar One And Two:
   Dsus2
E|------------------|
B|-^3---3--3-3--3---|
G|-|2---2--2-2--2-2-|
D|-|0---0--0-0--0-0-|
A|-|0---0--0-0--0-0-|
E|-|0---0-----------|

E|---------------------|
B|-^3---3--3-3-3-3--3--|
G|-|2---2--2-2-3-2--2--|
D|-|0---0--0-0-0-0--0--|
A|-|0---0--0-0-0-0--0--|
E|-|0---0------------0-|
________________________

-VERSE-

Guitar One And Two:
   Bm
E||---2--2-2-2-2--2--x-x-|
B||o--3--3-3-3-3--3--x-x-|
G||---4--4-4-4-4--4--x-x-|
D||---4--4-4-4-4--4--x-x-|
A||o--2--2-2-2-2--2--x-x-|
E||------------------x-x-|
_________________________
   Asus2
E|-0--0--0-0-0-0-|
B|-0--0--0-0-0-0-|
G|-2--2--2-2-2-2-|
D|-2--2--2-2-2-2-|
A|-0--0--0-0-0-0-|
E|---------------|
__________________
   G         Em7
E|-3--3-3-3--0-0-0-0-|
B|-3--3-3-3--3-3-3-3-|
G|-0--0-0-0--0-0-0-0-|
D|-0--0-0-0--x-x-x-x-|
A|-2--2-2-2--2-2-2-2-|
E|-3--3-3-3--0-0-0-0-|
______________________
  
   G
E|-3--3-3-3--3-3-3-3--||
B|-3--3-3-3--3-3-3-3-o||
G|-0--0-0-0--0-0-0-0--||
D|-0--0-0-0--0-0-0-0--||
A|-2--2-2-2--2-2-2-2-o||
E|-3--3-3-3--3-3-3-3--||
                      x2
_________________________

   Em       F|m       G
E|-0--0-0-0--2-2-2-2-^3-------||
B|-0--0-0-0--2-2-2-2-|3-------||
G|-0--0-0-0--2-2-2-2-|0-------||
D|-2--2-2-2--4-4-4-4-|0-------||
A|-2--2-2-2--0-0-0-0-|2-------||
E|-0--0-0-0--2-2-2-2-|3-------||
________________________________

-CHORUS II-

Guitar One And Two:
     D        Bm       Asus2
E||--2-2-2-2--2-2-2-2--0-0-0-0-|
B||o-3-3-3-3--3-3-3-3--0-0-0-0-|
G||--2-2-2-2--4-4-4-4--2-2-2-2-|
D||--0-0-0-0--4-4-4-4--2-2-2-2-|
A||o----------2-2-2-2--0-0-0-0-|
E||----------------------------|
________________________________
   G
E|-3--3-3-3--3-3-3-3--||
B|-3--3-3-3--3-3-3-3-o||
G|-0--0-0-0--0-0-0-0--||
D|-0--0-0-0--0-0-0-0--||
A|-2--2-2-2--2-2-2-2-o||
E|-3--3-3-3--3-3-3-3--||
                      x2
_________________________
  N.C.  Dsus2
E|-x------------||
B|-x----^3------||
G|-x----|2------||
D|-x----|0------||
A|-x----|0------||
E|-x----|0------||
___________________

Interlude:

Guitar One And Two:
   Em        Bm     G
E|-0--0-0-0--2--x--^3--|
B|-0--0-0-0--3--x--|3--|
G|-0--0-0-0--4--x--|0--|
D|-2--2-2-2--2--x--|0--|
A|-2--2-2-2--2--x--|2--|
E|-0--0-0-0-----x--|3--|
________________________

Outro:

Guitar One And Two:
     Bm   Asus2   G
E||---2-----0-----3---||
B||o--3-----0-----3--o||
G||---4-----2-----0---||
D||---4-----2-----0---||
A||o--2-----0-----2--o||
E||---------------3---||
                      x6
________________________



A Bit of it is out of order, Apologies.
-Seth "Shadows" Sanders (F.u.c.kallyourfalsebeauty@hotmail.com)

-----Legend-----

^
|
|  Appreggio Downstroke
|

|
|  Appreggio Upstroke
|
v

~  Vibrato
Tap to rate this tab
# A B C D E F G H I J K L M N O P Q R S T U V W X Y Z