Guitaretab - guitar tabs
Song name
# A B C D E F G H I J K L M N O P Q R S T U V W X Y Z

Gratitude - This Is The Part tab

INTRO

guitar 1 (distortion)
---------------------|
---------------------|
---779966677996666---| x4
---------------------|
---------------------|
---------------------|

guitar 2 (distortion)
-----------------------------------------------------|
-----------------------------------------------------|
-------------------------77--77--777-----------------|
---99--99--99955--55--55577--77--77777--77--777--9---|
---99--99--99955--55--55555--55--55577--77--777--9---|
---77--77--77733--33--33------------55--55--555--7---|

1ST VERSE (clean except for the last 2 chords)
---3---5---5---7---3---5---5--------|
---3---5---5---7---3---5---5--------|
---4---7---6---8---4---7---6--------|
---5---7---7---9---5---7---7---99---|
---5---5---7---9---5---5---7---99---|
---3-------5---7---3-------5---77---|

CHORUS
guitar 2
--------------------------------------------------------------------|
--------------------------------------------------------------------|
-----------------------------------777777777777777------------------|
---9999999999999999555555555555555577777777777777777777777777777777-|
---9999999999999999555555555555555555555555555555577777777777777777-|
---77777777777777773333333333333333---------------55555555555555555-|

guitar 1 (comes in half way through guitar 2's bit)
---------------------|
---------------------|
---779966677996666---| x2
---------------------|
---------------------|
---------------------|

2ND VERSE

--------------------------------------------------|
--------------------------------------------------|
--------------------------------------------------|
---9--------------------9------9------9------9----|
---9--9999999999999999--9--99--9--99--9--99--9----|
---7--7777777777777777--7--77--7--77--7--77--7----|
      -----PM---------     PM     PM--------------|     PM

-----------------------------------------------------------------------|
-----------------------------------------------------------------------|
-----------------------------------------------------------------------|
-------------------7777777777777777------------------------------------|
---9999999999999999555555555555555555555555555555555555555555555555----|
---7777777777777777----------------33333333333333333333333333333333----|
   --------------------PM----------------------------------------------|

CHORUS X2
[ Tab from: http://www.guitaretab.com/g/gratitude/73841.html ]
then...
guitar 1
--------------------------------------------|
--------------------------------------------|
---77996667799666677996661111111112121212---|
--------------------------------------------|
--------------------------------------------|
--------------------------------------------|

guitar 2
--------------------------------------|
--------------------------------------|
--------------------------------------|
---99999999999999999999999999999999---|
---99999999999999999999999999999999---|
---77777777777777777777777777777777---|

both
-----------------------------|
-----------------------------|
-----------------------------|
-------9------9------9--55---|
---99--9--99--9--99--9--55---|
---77--7--77--7--77--7--33---|
   PM     PM     PM     PM

----
SOLO
----
guitar 1
-------------------------------------------------------------|
-------------------------------------------------------------|
---12-11-9-7-12-11-9-7-11h12p11--------12-11-9-7-6-----------|
-------------------------------------------------------------|
-------------------------------------------------------------|
--------------------------------4/14/4-----------------------|

guitar 2
------------------------------------------------------|
------------------------------------------------------|
-----------------------------------5555555555555555---|
---999999999999999955555555555555555555555555555555---|
---999999999999999955555555555555553333333333333333---|
---77777777777777773333333333333333-------------------|

CHORUS X2

on 2nd chorus guitar 1 plays
-----------------------------------------------------------------------|
-----------------------------------------------------------------------|
---111111111111111111111111111111117777777777777777--779966677996666---|
-----------------------------------------------------------------------|
-----------------------------------------------------------------------|
-----------------------------------------------------------------------|

OUTRO
guitar 1
---1010109999-------------|
-------------101010-------|
-------------------7777---|  x3
--------------------------|
--------------------------|
--------------------------|

---1010109999121212121212121214141414141414141414141414141414---|
----------------------------------------------------------------|
----------------------------------------------------------------|
----------------------------------------------------------------|
----------------------------------------------------------------|
----------------------------------------------------------------|

guitar 2 plays chorus then
-----------------------------------|
-----------------------------------|
-----------------------------------|
-------9------9------9------9--9---|
---99--9--99--9--99--9--99--9--9---|
---77--7--77--7--77--7--77--7--7---|
   PM     PM     PM     PM

www.gratitudemusic.com
Related for This Is The Part tab
Advertisement will be closed in 10 seconds