Song name
# A B C D E F G H I J K L M N O P Q R S T U V W X Y Z

Gratitude - If Ever tab

Band: Foo Fighters
Song: If Ever
Tuning: Standard
Tabbed by: Carlos Ramirez


Structure of the song:

-intro(2 times)

-verse(2 times plus end of verse before chorus)

-1st chorus

-verse (2 times plus end of verse before chorus)

-2nd chorus, 1st chorus

-instrumental: verse( 2 times)

-2nd chorus, 1st chorus

-verse (once)


INTRO:
       G           D      A
e|---3--3--3-----2-2-2----0-----------|
B|---3--3--3-----3-3-3----2-----------|
G|---0--0--0-----2-2-2----2-----------| 2X
D|---0--0--0-----0-0-0----2-----------|
A|---2--2--2--------------0-----------|
E|---3--3--3--------------------------|

VERSE:
    A                   E           Bm          D
e|-----------------------------0--------2/------------3p2------------|
B|----------3p2----------------0--------3/----------3------3---------|
G|--------2-----2--------------1--------4/--------2----------2-------|
D|------2---------2---------2-------4-----------0--------------------|
A|---0--------------------2---------2--------------------------------|
E|----------------------0--------------------------------------------|

     A                  E           Bm          Dm
e|-----------------------------0--------2/------------1p0------------|
B|----------3p2----------------0--------3/----------3------3---------|
G|--------2-----2--------------1--------4/--------2----------2-------|
D|------2---------2---------2-------4-----------0--------------------|
A|---0--------------------2---------2--------------------------------|
E|----------------------0--------------------------------------------|


END OF VERSE BEFORE CHORUS:
     Dm
e|--------1p0---------|
B|------3------3------|
G|----2----------0----|
D|--0-----------------|
A|--------------------|
E|--------------------|


1st CHORUS:
        G          D        A
e|---3--3--3-----2-2-2----0-0-0----0---0-0-0------|
B|---3--3--3-----3-3-3----2-2-3p2--3p2-2-2-2------|
G|---0--0--0-----2-2-2----2-2-2----2---2-2-2------|
D|---0--0--0-----0-0-0----2-2-2----2---2-2-2------|
A|---2--2--2--------------0-0-0----0---0-0-0------|
E|---3--3--3--------------------------------------|
        G          D      E
e|---3--3--3-----2-2-2----0-----------|
B|---3--3--3-----3-3-3----0-----------|
G|---0--0--0-----2-2-2----1-----------|
D|---0--0--0-----0-0-0----2-----------|
A|---2--2--2--------------2-----------|
E|---3--3--3--------------0-----------|

2nd CHORUS:
        G          D        A
e|---3--3--3-----2-2-2----0-0-0----0---0-0-0------|
B|---3--3--3-----3-3-3----2-2-3p2--3p2-2-2-2------|
G|---0--0--0-----2-2-2----2-2-2----2---2-2-2------|
D|---0--0--0-----0-0-0----2-2-2----2---2-2-2------|
A|---2--2--2--------------0-0-0----0---0-0-0------|
E|---3--3--3--------------------------------------|
        G          D        E
e|---3--3--3-----2-2-2----0-0-0---0---0-0-0--|
B|---3--3--3-----3-3-3----0-0-0---0---0-0-0--|
G|---0--0--0-----2-2-2----1-1-2p1-2p1-1-1-1--|
D|---0--0--0-----0-0-0----2-2-2---2---2-2-2--|
A|---2--2--2--------------2-2-2---2---2-2-2--|
E|---3--3--3--------------0-0-0---0---0-0-0--|


END OF SONG:
    Dm
e|--------1-----------|
B|------3-------------|
G|----2---------------|
D|--0-----------------|
A|--------------------|
E|--------------------|
Tap to rate this tab
# A B C D E F G H I J K L M N O P Q R S T U V W X Y Z