Song name
# A B C D E F G H I J K L M N O P Q R S T U V W X Y Z

Grave Babies - Over And Under Ground tab

Song is very easy and fun to play.
Standart tuning.

Intro and verse:

G               \
                 | 2 times
Em         C    /

(I don't know what actual lyrics are and they're kinda hard to hear, but here's the idea)

G       Em
We both know
C              G
I hope(?) .... winter(?)
G      Em
All we know
C      G

and so on until

C
I'm over and under
C
over and under
C
over and under
C
over and under
A       G
ground  (?)
A       G
(some misheard lyrics again)
A       G
(and again)
C
I'm over and under
C
over and under
C
over and under
C
over and under

Ground

and this time it's the little section that starts on the word 'ground'
it looks like this

e|-------------------------------------------------------------------|
B|-------------------------------------------------------------------|
G|-------------------------------------------------------------------|
D|--5-5-5-5-5-5-5-5-9-9-9-9-9-9-9-9--5-5-5-5-5-5-5-5-9-9-9-9-9-9-9-9-|
A|--5-5-5-5-5-5-5-5-7-7-7-7-7-7-7-7--5-5-5-5-5-5-5-5-7-7-7-7-7-7-7-7-|
E|--3-3-3-3-3-3-3-3-0-0-0-0-0-0-0-0--3-3-3-3-3-3-3-3-0-0-0-0-0-0-0-0-|

e|-------------------------------------------------------------------|
B|-------------------------------------------------------------------|
G|--5-5-5-5-5-5-5-5-9-9-9-9-9-9-9-9--5-5-5-5-5-5-5-5-9-9-9-9-9-9-9-9-|
D|--5-5-5-5-5-5-5-5-7-7-7-7-7-7-7-7--5-5-5-5-5-5-5-5-7-7-7-7-7-7-7-7-|
A|--3-3-3-3-3-3-3-3-0-0-0-0-0-0-0-0--3-3-3-3-3-3-3-3-0-0-0-0-0-0-0-0-|
E|-------------------------------------------------------------------|

Then play verse, chorus again
But instead of the section above play this little interlude

e|-------------------------------------------------------------------|
B|-------------------------------------------------------------------|
G|-------------------------------------------------------------------|
D|----------------------------------2-2-2-2-2-2-2-2------------------|
A|--------------------------------------------------3-3-3-3-3-3-3-3--|
E|--3-3-3-3-3-3-3-3-3-3-3-3-3-3-3-3----------------------------------|

Play it 3 times

On the fourth time play this

e|-------------------------------------------------------------------|
B|-------------------------------------------------------------------|
G|-------------------------------------------------------------------|
D|-------------------------------------------------------------------|
A|----------------------------------3-3-3-3-3-3-3-3-3-3-3-3-3-3-3-3--|
E|--3-3-3-3-3-3-3-3-3-3-3-3-3-3-3-3----------------------------------|

Then play

e|-------------------------------------------------------------------|
B|-------------------------------------------------------------------|
G|-------------------------------------------------------------------|
D|--5-5-5-5-5-5-5-5-9-9-9-9-9-9-9-9--5-5-5-5-5-5-5-5-9-9-9-9-9-9-9-9-|
A|--5-5-5-5-5-5-5-5-7-7-7-7-7-7-7-7--5-5-5-5-5-5-5-5-7-7-7-7-7-7-7-7-|
E|--3-3-3-3-3-3-3-3-0-0-0-0-0-0-0-0--3-3-3-3-3-3-3-3-0-0-0-0-0-0-0-0-|

e|-------------------------------------------------------------------|
B|-------------------------------------------------------------------|
G|--5-5-5-5-5-5-5-5-9-9-9-9-9-9-9-9--5-5-5-5-5-5-5-5-9-9-9-9-9-9-9-9-|
D|--5-5-5-5-5-5-5-5-7-7-7-7-7-7-7-7--5-5-5-5-5-5-5-5-7-7-7-7-7-7-7-7-|
A|--3-3-3-3-3-3-3-3-0-0-0-0-0-0-0-0--3-3-3-3-3-3-3-3-0-0-0-0-0-0-0-0-|
E|-------------------------------------------------------------------|

End with G chord.

And that's it.
Tap to rate this tab
# A B C D E F G H I J K L M N O P Q R S T U V W X Y Z