Guitaretab - guitar tabs
Song name
# A B C D E F G H I J K L M N O P Q R S T U V W X Y Z

Grave Digger - Demons Day tab

-------------------------------------------------------------------------------
			     Demons Day - By Grave Digger
-------------------------------------------------------------------------------
Tabbed by:Sam Murock
Email:pedrosmark@gmail.com or www.myspace.com/samandhisguitars

Very easy song to figure out heres just the intro and base of the song

Intro: X2
e|-------------------------------------------------------------------------------|
B|---------------------------------------------------------------5-------------5-|
G|---------------------------------------------------------------5-------------5-|
D|------5------------5------------5---7/9-9-7-5-7-5---------5----5--------5----5-|
A|--5-7---7------5-7---7-7----5-7---7---------------9---5-7---7--3----5-7---7--3-|
E|0----------0-0------------0-------------------------0-------------0------------|
[ Tab from: http://www.guitaretab.com/g/grave-digger/103914.html ]
Distortion The Good Classic Grave Digger Kind
Riff1:X2                           1st time only
e|----------------------------------:|---|-----------------------------------------|
B|----------------------------------:|---|-----------------------------------------|
G|------7-----------7-----------7---:|-5-|---9-11-11-9-7-9-7----------7------------|
D|--7-9-5-9-----7-9-5-9-9---7-9-5-9-:|-5-|---7/9--9--7-5-7-5-11---7-9-5-9------7---|
A|2-5-7---7-2-2-5-7---7-7-2-5-7---7-:|-3-|-------------------9--2-5-7---7--2-2-5---|
E|0---------0-0-----------0---------:|---|----------------------0----------0-0-----|

----------------------------|
----------------------------|
-7------------7----5-5-4----|
9-5-9-9----7-9-5-9--5-5-4---|
7---7-7--2-5-7---7--3-3-2---|
--------0-------------------|

Pick slide
Then
Riff2:X4
                                           1st    2nd     1st then 2nd
e|------------------------------------------|-----|------|
B|------------------------------------------|-----|------|
G|------------------------------------------|-----|------|
D|----2-----2-----2-----2-----2-----2-----2-|-5-4-|-5-7--|
A|----2-----2-----2-----2-----2-----2-----2-|-5-4-|-5-7--|
E|0-0-0-0-0-0-0-0-0-0-0-0-0-0-0-0-0-0-0-0-0-|-3-2-|-3-5--|

Riff1
Riff2 with some added rhythm
Riff1 with some added rhythm

| /  slide up
| \  slide down
| h  hammer-on
| p  pull-off
| ~  vibrato
| +  harmonic
| x  Mute note
===============================================================================
Related for Demons Day tab
Demons Day chords by Grave Digger