Song name
# A B C D E F G H I J K L M N O P Q R S T U V W X Y Z

Grave Digger - Excalibur tab

This is Excalibur by Gravedigger. Some parts may be a little off but I think I did 
an overall good job.
Intro                                                 Alt. ending|
e|----------------------------------------------------|----------| 
B|----------------------------------------------------|----------| 
G|----------------------------------------------------|----------|
D|----------------------------------------------------|--7-5-----|
A|--------5h7--8h6--7h5--55-5h7--8h6--7h5--55(repeat)-|--5-3-----|  
E|-----------00---00---00------00---00---00-----------|----------|

Verse (x2)
e|---------------------------------------------------------------|
B|---------------------------------------------------------------|
G|---------------------------------------------------------------|
D|--------5-2-7--8-8-7--5-2-7--8-8-7--(Intro riff)---------------|
A|--------3-0-5--6-6-5--3-0-5--6-6-5-----------------------------|
E|---------------------------------------------------------------|

Bridge
e|---------------------------------------------------------------|
B|---------------------------------------------------------------|
G|--------------------------------------------------------4------|
D|--------5-2-5-8-7----5-2-5-7-8----5-2-5-8-7---6544------2------|
A|--------3-0-3-6-5----3-0-3-5-6----3-0-3-6-5-------6544---------|
E|------------------------------------------------------6544-----|


Sorry, I don't know the chorus
If you know it please submit it
Tap to rate this tab
 
# A B C D E F G H I J K L M N O P Q R S T U V W X Y Z