Song name
# A B C D E F G H I J K L M N O P Q R S T U V W X Y Z

Grave Digger - Grave Of The Addicted tab

Hi guys, thanks for viewing my tab. Hope its right and cut some slack if it aint
cuz this is my first tab ever =D


|--------------|
|--------------|
|--------------|
|--7-9-10-9----|
|--5-7-8--7----|
|--------------|

MAIN RIFF
|----------------------------------------------------------|
|----------------------------------------------------------|
|----------------------------------------------------------|
|--14-13-10-9-7---7-9-10-9---9-10-13-10-\9-9---7-9-10-9----|   (x4)
|--12-11- 8 7-5---5-7-8--7---7-8--11-8  \7-7---5-7-8--7----|
|----------------------------------------------------------|

(Alternate ending for main riff)
|--------------------------------------|
|--------------------------------------|
|--------------------------------------|
|--9-10-7-10-\9--9-----7-9-10-9--------|
|--7-8--5-8--\7--7-----5-7-8--7--------|
|--------------------------------------|
Tap to rate this tab
 
# A B C D E F G H I J K L M N O P Q R S T U V W X Y Z