Song name
# A B C D E F G H I J K L M N O P Q R S T U V W X Y Z

Grave Digger - Headbanging Man tab

TUNE: A

INTRO: A - B - C

E|------------|
B|------------|
G|---2--4--5--|
D|---2--4--5--| OR |---7--9--10--|
A|---0--2--3--|    |---7--9--10--|
E|------------|    |---5--7--8---|


E|----------------------------------------------------------------|
B|----------------------------------------------------------------|
G|--------------------------5-5-------------------------9---------|              
D|--------------------------5-5-------------------------9---------|            
A|--0-0-0-0-0-0-0-0-0-0-0-0-----0-0-0-0-0-0-0-0-0-0-0-0-7---------|
E|----------------------------------------------------------------|





-----------------------------------------------------------------------------

MAIN:

E|----------------------------------------------------------------|
B|----------------------------------------------------------------|
G|--------------------------5-5-------------------------5-5-------|>               
D|--------------------------5-5-------------------------5-5-------|>                   
A|--0-0-0-0-0-0-0-0-0-0-0-0-----0-0-0-0-0-0-0-0-0-0-0-0-----------|>
E|----------------------------------------------------------------|

D|--------------------------5---
A|--0-0-0-0-0-0-0-0-0-0-0-0-5---
E|--------------------------3---
-------------------------------------------------
CHORUS: G (power chord)
-------------------------------------------------

Before solo


C-B----D-C----

---------------------------------------------------------------------------
Tap to rate this tab
# A B C D E F G H I J K L M N O P Q R S T U V W X Y Z