Song name
# A B C D E F G H I J K L M N O P Q R S T U V W X Y Z

Grave Digger - Dolphins Cry tab

-------------------------------------------------------------------------------
                             DOLPHIN'S CRY - Grave Digger
-------------------------------------------------------------------------------
Tabbed by: reedoo

Tuning: standard
 

INTRO + VERSE 

e|---------0-------|-----------------|---------0-------|------------------|
B|-----------0-----|-----------------|-----------0-----|------------------|
G|-------0-----0---|-----0-----0-----|-------0-----0---|-----0-----0------|
D|-----4---------4-|---2---------4---|-----4---------4-|---2---------4----|
A|---7-------------|-3-----3/5-----5-|---7-------------|-3-----3/5-----5--|
E|-0---------------|-----------------|-0---------------|------------------|

e|---------0-------|-----------------|---------0-------|------------------|
B|-----------0-----|-----------------|-------0---0-----|------------------|
G|-------0-----0---|-----0-----0-----|-----0-------0---|----0-------0-----|
D|-----4---------4-|---2---------4---|---1-------------|--2-------4---4---|
A|---7-------------|-3-----3/5-----5-|-2-------------2/|3-----3/5---------|
E|-0---------------|-----------------|-----------------|------------------|

                                                        *
e|---------0-------|-----------------|---------0-------|------------------|
B|-----------0-----|-----------------|-----------0-----|------------------|
G|-------0-----0---|-----0-----0-----|-------0-----0---|-----0-----0------|
D|-----4---------4-|---2---------4---|-----4---------4-|---2---------4----|
A|---7-------------|-3-----3/5-----5-|---7-------------|-3-----3/5-----5--|
E|-0---------------|-----------------|-0---------------|------------------|

e|---------0-------|-----------------|---------0-------|------------------|
B|-----------0-----|-----------------|-------0---0-----|------------------|
G|-------0-----0---|-----0-----0-----|-----0-------0---|----0-------0-----|
D|-----4---------4-|---2---------4---|---1-------------|--2-------4---4---|
A|---7-------------|-3-----3/5-----5-|-2-------------2/|3-----3/5---------|
E|-0---------------|-----------------|-----------------|------------------|

e|----------0---------|--------0---------|--------0------|----------------|
B|--------0---0-------|------0---0-------|------0---0----|----------------|
G|------0-------0-----|----0-------0-----|----0-------0--|----0-------0---|
D|----9-----------9---|--7-----------7---|--4-----------4|--2-------4---4-|
A|5/7---------------7\|5---------------5\|2--------------|3-----3/5-------|
E|--------------------|------------------|---------------|----------------|

e|----------0---------|--------0---------|--------0------|----------------|
B|--------0---0-------|------0---0-------|------0---0----|----------------|
G|------0-------0-----|----0-------0-----|----0-------0--|----0-------0---|
D|----9-----------9---|--7-----------7---|--4-----------4|--2-------4---4-|
A|5/7---------------7\|5---------------5\|2--------------|3-----3/5-------|
E|--------------------|------------------|---------------|----------------|
 
                       **                  **              **                
e|-0-----------------|-0-----------------|-0-------------|-0--------------|
B|-0-----------------|-0-----------------|-0-------------|-0--------------|
G|-2-----------------|-2-----------------|-2-------------|-2--------------|
D|-2-----------------|-2-----------------|-2-------------|-2--------------|
A|-0-----------------|-0-----------------|-0-------------|-0--------------|
E|-------------------|-------------------|---------------|----------------|


e|-------------------| repeat until Solo (03:14)
B|-------------------|
G|-------------------|
D|-------------------|
A|-------------------|
E|-3-2---------------|


SOLO (Guitar_1) 

(03:14)

  PM PM PM PM PM PM   PM PM PM PM PM PM   (repeat)
e|-------------------|-------------------|
B|-------------------|-------------------|
G|-----0-----0-------|-----0-----0-------|
D|---2-----2-----2---|---4-----2---------|
A|-------3-----3-----|-5-----3-----3-----|
E|-0-----------------|---------------2h3-|

(03:52)                                   (repeat)
e|-------------------|-------------------|
B|-------------------|-------------------|
G|-2-----------------|-------------------|
D|-2-----------------|-3-----------------|
A|-0-----------------|-3-----------------|
E|-------------------|-1-----------------|
 
(04:11)
  PM PM PM            PM PM PM            (repeat, then back to Verse+Outro)
e|-------------------|-------------------|
B|-------------------|-------------------|
G|-2-2-2-2-2---------|-------------------|
D|-2-2-2-2-2---------|-3-3-3-3-3---------|
A|-0-0-0-0-0---------|-3-3-3-3-3---------|
E|-------------------|-1-1-1-1-1---------|


OUTRO 

(05:38)
e|-------------|---------|-0-------|-<12>---------|-<7>---------|--<12>-<12>|
B|-----------0-|-------0-|-0-------|----<12>------|----<7>------|-------<12>|
G|---------0---|-----0---|-2-------|-------<12>---|-------<7>---|-------<12>|
D|-------2-----|---4-----|-2-------|----------<12>|----------<7>|<7>--------|
A|-0-2-3-------|-5-------|-0-------|--------------|-------------|-----------|
E|-------------|---------|---------|--------------|-------------|-----------|
 

* = for verse:
e|-------------------|
B|-------0-----0-----|
G|-----0-----0-------|
D|-1/5-----4-----7\5-|
A|-------------------|
E|-------------------|


** = only intro! 



************************************

| /   slide up
| \   slide down
| h   hammer-on
| <>  artificial harmonic
| PM  palm mute

************************************
Tap to rate this tab
# A B C D E F G H I J K L M N O P Q R S T U V W X Y Z