Guitaretab - guitar tabs
Song name
# A B C D E F G H I J K L M N O P Q R S T U V W X Y Z

Grave Digger - The Dark Of The Sun tab

                   "THE DARK OF THE SUN"  (GRAVE DIGGER from the album "TUNES OF WAR")    




RIFF A
---------------------
---------------------
-9--9--8----7--7--6--
-9--9--8----7--7--6--     (TWICE)
-7--7--6----5--5--4--
---------------------
RIFF B                                                                         
--------------------------------------------
--------------------------------------------
-----9-----9-----8--------7-----7-----6-----
-----9-----9-----8--------7-----7-----6-----   (TWICE)
-----7-----7-----6--------5-----5-----4-----
-0-0---0-0---0-0------0-0---0-0---0-0-------

RIFF C
---------------------------------------
---------------------------------------
---------------------------------------
-----9-----10-----11-----10-----10/11--   (8 TIMES)....PLAY IT MORE QUICLY THAN OTHER RIFFS
-----7-----8------9------8------8-/9---                WRITTEN BEFORE
-0-0---0-0----0-0----0-0----0-0--------


CHRISS START TO SING........


RIFF D
---------------------------
-----7----5-----4-----4/5--
-----7----5-----4-----4/5--     
-----5----3-----2-----2/3--
-0-0---0-0--0-0---0-0------

RIFF E
--------------------------
--------------------------
-10-10-10-----10-10-10----
-10-10-10-----10-10-10----
-8--8--8------8--8--8-----
--------------------------


REPEAT RIFF B TWICE THAN........

CHORUS....
-----------------------------------------------------------------------------
-----------------------------------------------------------------------------
----9--11--12---11--7--9-----9----9--11--12---11--14--9-9---9-9---9-9---9-9--
----9--11--12---11--7--9-----9----9--11--12---11--14--9-9---9-9---9-9---9-9--
----7--9---10---9---5--7-----7----7--9---10---9---12--7-7---7-7---7-7---7-7--
----------------------------------------------------------------------

"...IN THE DARK OF THE SUN........IN THE DARK OF THE SUN............"


-----------------------------------------------------------------------------
-----------------------------------------------------------------------------
----9--11--12---11--7--9-----9----9--11--12---11---7--5------7---------------
----9--11--12---11--7--9-----9----9--11--12---11---7--5------7---------------
----7--9---10---9---5--7-----7----7--9---10---9----5--3------5---------------
-----------------------------------------------------------------------------

"...IN THE DARK OF THE SUN........IN THE DARK OF THE SUN............"


-REPEAT RIFFS  C,D,E AND CHORUS

-SOLO...  (I'M SORRY BUT I CAN'T TAB IT)

-REPEAT ONCE RIFF C AND TWICE CHORUS

THE SECOND TIME YOU PLAY CHORUS FINISH LIKE THIS: 


---------------------
---------------------
---------------------
--2------------------     
--2------------------
--0------------------



WELL....HOPE YOU WILL ENJOY THIS TAB....IF YOU HAVE ANY PROBLEMS OR COMMENTS JUST POST THEM
HERE:  deadmoonrising_666@hotmail.com


BYE
[ Tab from: http://www.guitaretab.com/g/grave-digger/38932.html ]
Related for The Dark Of The Sun tab
The Dark Of The Sun chords by Grave Digger