Song name
# A B C D E F G H I J K L M N O P Q R S T U V W X Y Z

Grave - Trial By Fire tab

Band:Grave
Song:Trial by Fire
Album:Fiendish Regression
Year:2004
Tabbed by Temo TG Gegia

Tab legend:
*-palm mute
/-slide up
\-slide down
t-tapping
S-sweeping
h-hammer on
p-pull off
b-bend
v-vibrato
fb-full bend
hb-half bend

So,here we go,a great song from old-school death metallers Grave.My opinion,this is what 
metal should sound like,scary shit.
Please rate,enjoy!

Intro:
||------||
||------||
||------||
||------||
||------||
||-\12/-||


Riff 1:Both guitars 4 times
||---------------------|---------------------|---------------------|
||---------------------|---------------------|---------------------|
||---------------------|---------------------|---------------------|
||-----------------5---|-----------------5---|-----------------5---|
||-3-2-------3-2-3-5---|-3-2-------3-2-3-5---|-3-2-------3-2-3-5---|
||-1-0-0-000-1-0-1-3---|-1-0-0-000-1-0-1-3---|-1-0-0-000-1-0-1-3---|
       * ***                 * ***                 * ***
||-------------------||
||-------------------||
||-------------------||
||---------------5---||
||-3-2-------3-2-5---||
||-1-0-0-000-1-0-3---||
       * ***
On the second time guitar 2 plays this once
||-------------------|-------------------|-------------------|
||-------------------|-------------------|-------------------|
||-------------------|-------------------|-------------------|
||-7-------7-6-7-9---|-7-------7-6-7-9---|-7-------7-6-7-9---|
||-5-------5-4-5-7---|-5-------5-4-5-7---|-5-------5-4-5-7---|
||---0-000-----------|---0-000-----------|---0-000-----------|
     * ***               * ***               * ***
|-----------------||
|-----------------||
|-----------------||
|-7-------7-6-9---||
|-5-------5-4-7---||
|---0-000---------||


Riff 2:                x 4
||----------------------||
||----------------------||
||----------------------||
||----------------------||
||--------2-------------||
||-3-2-0--0--3-2-0--1hb-||
   * * *     * * *

Repeat riff 1 twice
||---------------------|---------------------|---------------------|
||---------------------|---------------------|---------------------|
||---------------------|---------------------|---------------------|
||-----------------5---|-----------------5---|-----------------5---|
||-3-2-------3-2-3-5---|-3-2-------3-2-3-5---|-3-2-------3-2-3-5---|
||-1-0-0-000-1-0-1-3---|-1-0-0-000-1-0-1-3---|-1-0-0-000-1-0-1-3---|
       * ***                 * ***                 * ***
||-------------------||
||-------------------||
||-------------------||
||---------------5---||
||-3-2-------3-2-5---||
||-1-0-0-000-1-0-3---||
       * ***
Riff 3:
||-----------------------------------||
||-----------------------------------||
||-----------------------------------||
||-----------------------------------||
||-2-3v--2-2-2-4v--2-3v--5-3-2--3-5--||
||-0-----0-0-0-----0-----3-1-0--1-3--||
   *     * * *     *     * * *  * *

Guitar solo: Couldn't figure out trem dives,(got a fixed bridge) but here are the 
exact but sounds cool.
||------------------------------------------------------------------------||
||------------------------------------------------------------------------||
||------------------------------------------------------------------------||
||-\9bv==--------------------------------------------------\12fb====------||
||--------9h10p9----7-7fb========-7fb(8)r7v--7-7fb=========----/2fb======-||
||------------------------------------------------------------------------||

Slightly changed riff 3 as backup for solo:
||-------------------------------||
||-------------------------------||
||-------------------------------||
||-------------------------------||
||-2-3v--2-4v--2-3v--5-3-2--3-5--||
||-0-----0-----0-----3-1-0--1-3--||
   *     *     *     * * *

Repeat riff 2 eight times
||----------------------||
||----------------------||
||----------------------||
||----------------------||
||--------2-------------||
||-3-2-0--0--3-2-0--1hb-||
   * * *     * * *

Repeat riff 1 twice
||---------------------|---------------------|---------------------|
||---------------------|---------------------|---------------------|
||---------------------|---------------------|---------------------|
||-----------------5---|-----------------5---|-----------------5---|
||-3-2-------3-2-3-5---|-3-2-------3-2-3-5---|-3-2-------3-2-3-5---|
||-1-0-0-000-1-0-1-3---|-1-0-0-000-1-0-1-3---|-1-0-0-000-1-0-1-3---|
       * ***                 * ***                 * ***
||-------------------||
||-------------------||
||-------------------||
||---------------5---||
||-3-2-------3-2-5---||
||-1-0-0-000-1-0-3---||
       * ***

Repeat riff 3                        x4
||-----------------------------------||
||-----------------------------------||
||-----------------------------------||
||-----------------------------------||
||-2-3v--2-2-2-4v--2-3v--5-3-2--3-5--||
||-0-----0-0-0-----0-----3-1-0--1-3--||
   *     * * *     *     * * *  * *

Riff 4: slightly palm mute the whole thing           x3
||----------------------------------------------------||
||----------------------------------------------------||
||----------------------------------------------------||
||----------------------------------------------------||
||-------3333------4444------3333--5-3-2-3------------||
||-000000----000000----000000------3-1-0-1------------||
                                                      x1
||----------------------------------------------------||
||----------------------------------------------------||
||----------------------------------------------------||
||----------------------------------------------------||
||-------3333------4444------3333--5-3-2-3-2----------||
||-000000----000000----000000------3-1-0-1-0----------||

That's it!I hope it was helpful.Keep headbanging brothers!
Tap to rate this tab
# A B C D E F G H I J K L M N O P Q R S T U V W X Y Z