Guitaretab - guitar tabs
Song name
# A B C D E F G H I J K L M N O P Q R S T U V W X Y Z

Grave - And Here I Die tab

From: "Inverted" 
Subject: TAB : Grave - And Here I Die... (From The Ep: And Here I Die... Satisfied... ( Fixed One Thing))
Date: Sunday, November 04, 2001 4:18 AM


/ The following is the author's own interpretation of the song, to be used -
/ for studying or private use only, removal of any part of this ten line   -
/ header is illegal!!!  Removal of the transcribers name or anything       -
/ relevant to the transcriber is also illegal, as so is the removal of the -
/ place inwhich the tab was downloaded. Publishing as well as printing of  -
/ the tab is illegal without permission of the transcriber and copyright   -
/ owner of the song. Failure to apply to these laws result will in legal   -
/ action from the appropriate parties.                                     -







                             GRAVE - AND HERE I DIE...
                     From the EP: AND HERE I DIE... SATISFIED
                           Copyright:Century Media 1994
                            Version 1.0 - Oct, 31 2001
 

Transcribed by: James Williams (Inverted)
Special thanks to (Warlock)

For Questions, Comments, Newest Version, or Corrections contact
Inverted: at Inverted_one@hotmail.com
 
Check Out Death8699.com Metaltabs.com or dsrmusic.com for More
Transcriptions:http://www.Death8699.com http://www.Metaltabs.com


 .  - palm mute           /  - slide up to
 \  - slide down to       ~  - vibrato
 h  - hammer on           b  - bend
 p  - pull off            Suffixes for bend ^
 ph - pinched harmonic    f - full bend    h - half bend
 *  - see comment         r - release      t - tap bend
 X  - Stuccatto           ~ - vibrato bend q - quarter bend
 ,  - slight palm mute   () - ghost note, sustained note
 '  - tremolo note       <> - Trill  

 Tune Guitar to "B"E"A"D"F#"D"
 
 AND HERE I DIE...

Riff 1- A
|-----------------------------------------------|
|-----------------------------------------------|
|-----------------------------------------------|
|--2-5-4------------------2-5-4-----------------|
|----------2-3-3--2-5-4-----------2-3-3--2-5-4--|
|-----------------------------------------------|

Riff 1 - B
|-----------------------------------------------|
|-----------------------------------------------|
|--2-5-4------------------2-5-4-----------------|
|----------2-3-3--2-5-4-----------2-3-3--2-5-4--|
|-----------------------------------------------|
|-----------------------------------------------|

Riff 1 - C
|-----------------------------------------------|
|-----------------------------------------------|
|-----------------------------------------------|
|--4\7-6------------------4\7-6-----------------|
|--2\5-4---4\5-5--4\7-6---2\5-4---4\5-5--4\7-6--|
|----------2\3-3--2\5-4-----------2\3-3--2\5-4--|

Riff 2                                 Fill
|-----------------------------------| ||------------||
|-----------------------------------| ||------------||
|-----------------------------------| ||------------||
|-----------------------------------| ||------------||
|--0022332--------------------------| ||--33333333--||
|----------0-0-0-0-0-0-0-0-0-0-0-0--| ||------------||
pm ,,,,,,, . . . . . . . . . . . .        ,,,,,,,,

Riff 3 - A
|-----------------------|
|-----------------------|
|-----------------------|
|-----------------------|
|--------------4---5----|
|--3p2-0-0-3-2---5---4--|
spm, , , ,

Riff 3 - B
|----------------------------|
|----------------------------|
|----------------------------|
|---------------6---7--------|
|---------------4-7-5-6--2x--|
|--3p2-0-0-3-2----5---4--0x--|
spm, , , ,

Lead 1
|------------------------------------------------------|
|------------------------------------------------7<>8--|
|---------------------7<>8-----------------------------|Gtr I
|--\5~---7~---7h8-8~----------\5~---7~---7h8-8~--------|
|------------------------------------------------------|
|------------------------------------------------------|

|------------------------------------------------------|
|------------------------------------------------------|
|-------------------------------------------------7<>8-|Gtr II
|---------------------7<>8-----------------------------|
|--\5~---7~---7h8-8~----------\5~---7~---7h8-8~--------|
|------------------------------------------------------|

Riff 4 - A
|-------------------------------------------------------|
|-------------------------------------------------------|
|-------------------------------------------------------|
|-------------------------------------------------------|
|-------------------------------------------------------|
|--000-0-0-000-0-0-000-0-0-000-0-0-000-0-0-000-0-0-000--|
pm ... . . ... . . ... . . ... . . ... . . ... . . ...

Riff 4 - B
|---------------------------------|
|---------------------------------|
|---------------------------------|
|---------------------------------|
|--003322332----------------------|
|------------0-0-000-0-0-000-0-0--|
spm,,,,,,,,, . . ... . . ... . .

Riff 4 - C
|---------------------------------|
|---------------------------------|
|---------------------------------|
|---------------------------------|
|--002233223----------------------|
|------------0-0-000-0-0-000-0-0--|
spm,,,,,,,,, . . ... . . ... . .

Riff 4 - D
|---------------------------------|
|---------------------------------|
|---------------------------------|
|-------------4-------------------|
|--003322332--2--------2----------|
|----------------------0----------|
spm,,,,,,,,,

Riff 4 - E
|---------------------------------|
|---------------------------------|
|---------------------------------|
|-------------5-------------------|
|--003322332--3--------3----------|
|----------------------1----------|
spm,,,,,,,,,

Lead 2
|------------------------------------------------------------|
|------------------------------------------------------------|
|------------------------------------9~----------------------|
|--24/(9)-9~----9-h-10--8~----8-h-9--------9~----------------|
|------------------------------------------------7~----(7)/--|
|------------------------------------------------------------|

End
|--------------------|
|--------------------|
|--------------------|
|--3--------2--------|
|--3--------2--------|
|--1--------0--------|

Song Structure:

Riff (1-A) x 2 Gtr I
Riff (1-A) x 1 (1-B) x 1 Gtr II
Riff (1-C) x 2
Riff ( 2 ) x 8
Riff (1-A) x 1
Riff (1-C) x 1
Riff ( 2 ) x 4 Fill x 1
Riff ( 2 ) x 4 Fill x 1
Riff (3-A) x 8
Lead ( 1 ) x 1 Gtr I & II
Riff (3-A) x 3 (3-B) x 1
Riff (4-A) x 1
Riff (4-B) x 2
Riff (4-C) x 2
Riff (4-B) x 2
Riff (4-D) x 2
Riff (4-E) x 2
Lead ( 2 ) x 1 Gtr I
Riff (4-D) x 2 (4-E) x 2 Gtr II
Riff ( 2 ) x 8 Fill x 1
Riff ( 2 ) x 4
End !

 Check out my other tabs by Grave, Hypocrisy and Obituary.
[ Tab from: http://www.guitaretab.com/g/grave/38923.html ]
Related for And Here I Die tab
×
Best way to learn
"And Here I Die"