Song name
# A B C D E F G H I J K L M N O P Q R S T U V W X Y Z

Gravenhurst - Velvet Cell tab

-------------------------------------------------------------------------------
			     The Velvet Cell - Gravenhurst
-------------------------------------------------------------------------------
Tabbed by: Luke Moroney
Email: Azerial_Enterprises@hotmail.com

http://www.silentagerecords.co.uk/gravenhurst/index.htm

Tuning:

Verse

e|---------------------------------------------------------------------------|
B|---------------------------------------------------------------------------|
G|--9-9-9-9-9-9-9-9-9-9-9-9-9-9-9-9------------------------------------------|
D|--7-7-7-7-7-7-7-7-7-7-7-7-7-7-7-7------------------------------------------|
A|---------------------------------------------------------------------------|
E|---------------------------------------------------------------------------|

e|---------------------------------------------------------------------------|
B|---------------------------------------------------------------------------|
G|--10-10-10-10-10-10-10-10-10-10-10-10-10-10-10-10--------------------------|
D|--7--7--7--7--7--7--7--7--7--7--7--7--7--7--7--7---------------------------|
A|---------------------------------------------------------------------------|
E|---------------------------------------------------------------------------|

Chorus

e|---------------------------------------------------------------------------|
B|---------------------------------------------------------------------------|
G|---------------------------------------------------------------------------|
D|--7-7-5-5-10-10-5-5-9-9-9-7-7-7-7-7-7-7-7-7--------------------------------|
A|--7-7-5-5-10-10-5-5-9-9-9-7-7-7-7-7-7-7-7-7--------------------------------|
E|--5-5-3-3-8--8--3-3-7-7-7-5-5-5-5-5-5-5-5-5--------------------------------|



Thats pretty much it, just put the structure together yourself, it's easy


| /  slide up
| \  slide down
| h  hammer-on
| p  pull-off
| ~  vibrato
| +  harmonic
| x  Mute note
===============================================================================
Tap to rate this tab
 
# A B C D E F G H I J K L M N O P Q R S T U V W X Y Z