Song name
# A B C D E F G H I J K L M N O P Q R S T U V W X Y Z

Gravenhurst - Diver tab

-------------------------------------------------------------------------------
			     THE DIVER - Gravenhurst
-------------------------------------------------------------------------------
Tabbed by: aluisiuz
Email: aluisiuz 'at' yahoo.de

Tuning: EADGBe (Standard)

This tab is held simple. Listen to the song to get the rhythm and variations.
The bass note plays regularly all the way through.

Have fun!

-----
Intro
-----

(Harmonics)

------------------------|
------------------------|
------------------------|   Repeat 2x
------------------------|
------------------------|
--7----7----7----7----7-|


-------------
Verse pattern
-------------

--2/3-----3------2/3-----3--------------|
--0-------0------0-------0--------------|
----------------------------------------|
----------------------------------------|
----------------------------------------|
--0----0----0----0----0----0----0----0--|

--2/3-----3------2/3-----3--------------|
--0-------0------0-------0--------------|
----------------------------------------|
----------------------------------------|
----------------------------------------|
--0----0----0----0----0----0----0----0--|

--2/3-----3------2/3-----3--------------|
--0-------0------0-------0--------------|
----------------------------------------|
----------------------------------------|
--2----2----2----3----3----3----3----3--|
----------------------------------------|

--2/3-----3------2/3-----3--------------|
--0-------0------0-------0--------------|
----------------------------------------|
----------------------------------------|
----------------------------------------|
--0----0----0----0----0----0----0----0--|


---------------
Refrain pattern
---------------

--7--------------7--------------7-------|
-(7)------7--------------7-----------7--|
----------------------------------------|
----------------------------------------|
----------------------------------------|
--7----7----7----7----7----7----7----7--|

--7--------------8----------------------|
----------7 / 8----------8-----------8--|
--------------------------------9-------|
----------------------------------------|
----------------------------------------|
--0----0----0----8----8----8----0----0--|


-----
Outro
-----

--15------0------14-----0----12---0-----|
--0-------12-----12-----10---10---8-----|
----------------------------------------|
----------------------------------------|
----------------------------------------|
--0----0----0----0----0----0----0----0--|

--10-----0-------8----------------------|
--8------7-------7------5-------7/8-----|
----------------------------------------|
----------------------------------------|
----------------------------------------|
--0----0----0----0----0----0----0----0--|

(now only bass line changes)

--15------0------14-----0----12---0-----|
--0-------12-----12-----10---10---8-----|
----------------------------------------|
--0----0----0----0----0----0----0----0--|
----------------------------------------|
----------------------------------------|

--10-----0-------8----------------------|
--8------7-------7------5-------7/8-----|
----------------------------------------|
--0----0----0----0----0----0----0----0--|
----------------------------------------|
----------------------------------------|

--15------0------14-----0----12---0-----|
--0-------12-----12-----10---10---8-----|
----------------------------------------|
----------------------------------------|
--0----0----0----0----0----0----0----0--|
----------------------------------------|

--10-----0-------8----------------------|
--8------7-------7------5-------7/8-----|
----------------------------------------|
----------------------------------------|
--0----0----0----0----0----0----0----0--|
----------------------------------------|

--15------0------14-----0----12---0-----|
--0-------12-----12-----10---10---8-----|
----------------------------------------|
--0----0----0----0----0----0----0----0--|
----------------------------------------|
----------------------------------------|

--10-----0-------8-------------------------7-----|
--8------7-------7------5-------7/8--7--5--------|
-------------------------------------------------|
--0----0----0----0----0----0---------------------|
-------------------------------------------------|
----------------------------------------------0--|


| /  slide up
| \  slide down
| h  hammer-on
| p  pull-off
| ~  vibrato
| +  harmonic
| x  Mute note
===============================================================================
Tap to rate this tab
# A B C D E F G H I J K L M N O P Q R S T U V W X Y Z