Guitaretab - guitar tabs
Song name
# A B C D E F G H I J K L M N O P Q R S T U V W X Y Z
Home / G / Graves / Tell Me tab

Graves - Tell Me tab

Intro/Chorus

E|-----------------------------------------------|
B|-----------------------------------------------|
G|8-888-888888885--------------------------------|
D|8-888-888888885-6-666666-8-888888--------------| 2x
A|6-666-666666663-6-666666-8-888888--------------|
E|----------------4-444444-6-666666--------------|

Verse
E|----------------------------------------------------------|
B|----------------------------------------------------------|
G|--------88888--------------------88!88--------------------|
D|--66666-88888-66666-88888-66666--88!88-88888-66666-88888--| 
A|--66666-66666-66666-88888-66666--66!66-88888-66666-88888--|
E|--44444-------44444-66666-44444----!---66666-44444-66666--|
[ Tab from: http://www.guitaretab.com/g/graves/161062.html ]
"Oh my...... oh my... oh my..." (Last Chorus before outro)
E|------------------------------------------------|
B|------------------------------------------------|
G|8888888-----------------------------------------|
D|8888888-----------6-666666-8-888888-------------| 2x
A|6666666-^---------6-666666-8-888888-------------|
E|--------2-(0)-0---4-444444-6-666666-------------|

Outro
E|-----------------------------------------------|
B|-----------------------------------------------|
G|88-55------------------------------------------|
D|88-55-66-88------------------------------------| 
A|66-33-66-88------------------------------------|
E|------44-66------------------------------------|

**************************GENERAL***SHIT************************************
NOTE THE FILL

Where the !!!!!! are is a tiny fill it's half way through for lead only
E-------------------------------|
B-------------------------------|
G-------------------------------|
D-------------------------------|
A---^---------------------------|
E---2-(0)--0--------------------|
Related for Tell Me tab
Advertisement will be closed in 10 seconds