Song name
# A B C D E F G H I J K L M N O P Q R S T U V W X Y Z

Graveworm - Legions Unleashed tab

			     Graverworm:Legions Unleashed
Tabbed by:blackcard
Email:highvoltage@net.hr

Tuning:Standard 1 or 2 steps down not sure, dont realy listen to Graveworm, XD

e|--------------------------------------------------------------------------|
B|--------------------------------------------------------------------------|
G|---------------------------4-4-4-4-4-4------------------------------------|
D|-------------2-2---4-4----------------------------------------------------|
A|0-0-0-0-------------------------------------------------------------------|
E|--------------------------------------------------------------------------|

e|--------------------------------------------------------------------------|
B|--------------------------------------------------------------------------|
G|---------------------------5-5-5-5-5-5------------------------------------|
D|-------------2-2---4-4----------------------------------------------------|
A|0-0-0-0-------------------------------------------------------------------|
E|--------------------------------------------------------------------------|

e|--------------------------------------------------------------------------|
B|--------------------------------------------------------------------------|
G|--------------------------------------------------------------------------|
D|--------------------------------------------------------------------------|
A|--------------------------------------------------------------------------|
E|--------------------------------------------------------------------------|

I hope this helps and I hope its acurate, ya need to play it fast.
Tap to rate this tab
# A B C D E F G H I J K L M N O P Q R S T U V W X Y Z