Song name
# A B C D E F G H I J K L M N O P Q R S T U V W X Y Z

Graveyard - Evil Ways tab

Artist: Graveyard
Song: Evil Ways
Album: Graveyard

Tabbed By: Scott
Email: windowpane71@hotmail.com

Tuning: Standard

For the solo just throw down on the wah a bit.

Intro
E|---------------------|
B|---------------------|
G|---------------------|
D|--7---5---3----------|
A|----8---7---5-0-3-5--|
E|---------------------|

Verse          Chorus
E|------------|--------------|
B|------------|--------------|
G|--10--5--7--|--7--3--6--7--|
D|--10--5--7--|--7--3--6--7--|
A|---8--3--5--|--5--1--4--5--|
E|------------|--------------|

Ending Riff
E|---------------------------------|
B|---------------------------------|
G|--10--9--7--5--5/7--7-7-7-7-7-7--|
D|--10--9--7--5--5/7--7-7-7-7-7-7--|
A|---8--7--5--3--3/5--5-5-5-5-5-5--|
E|---------------------------------|

http://www.teepeerecords.com/bands/graveyard/index.php
Tap to rate this tab
# A B C D E F G H I J K L M N O P Q R S T U V W X Y Z