Song name
# A B C D E F G H I J K L M N O P Q R S T U V W X Y Z

Graveyard - Rss tab

_________________________________________________

Band: Graveyard
Song: RSS
Album: Hisingen Blues (2011)
Tuning: DGCFAD (1 step down)


Simple and fun to play, amazing tune by Graveyard. 
Hope you find it useful, and please rate it! 
_________________________________________________ 

Legend:

h = hammer-on
p = pull-off
b = bend
r = release bend

_________________________________________________

Main riff/Verse:

|-----------------------------------------|
|-----5-----------------------------------|
|-----5---7h5---------7b9-7-7b9r7h5-------|
|--7-----------5--7------------------5----|
|-----------------------------------------|
|-----------------------------------------|
|
|
|
|-----------------------------------------|
|-----5-----------------------------------|
|-----5---7h5-----7b9--7--5-7h5-----------|
|--7-----------7-----------------5--------|
|-----------------------------------------|
|-----------------------------------------|

Just repeat this through the verses. There's
some small variations of it, but actually
very small, not even worth of being tabbed.
Listen to the song and play the variations if
you want. :)

_________________________________________________ 

Pre-Chorus:


|-------------------------||----------------------|
|-------------------------||----------------------|
|-------------------------||----------------------|
|--10----------9----------||----------------------|
|---8----10----7----10----||--12--12-12-12-12-12--|
|---------8----------8----||----------------------|
                                   (4x)
_________________________________________________ 

Chorus:

|-------------------------||--5-----|
|-------------------------||--5-----|
|-------------------------||--5-----|
|--10----------9----------||--7-----|
|---8----10----7----10----||--7-----|
|---------8----------8----||--5-----|
              

__________________________________________________

|----------8--------5---------|
|--10------8--------5---------|
|--10------9--------5---------|
|--10-----10--------7---------|
|---8-----10--------7---------|
|----------8--------5---------|

"So if you judge me... and point your finger..."

__________________________________________________

Riff I (1:53):

|----------------||----------|
|----------------||----------|
|----------------||----5-----|
|--7--7-7h5------||--5-------|
|-----------7----||----------|
|----------------||----------|
(3x)

|----------------||----------------------------|
|----------------||----------------------------|
|----------------||--7b9r7h5--7----------------|
|--7--7-7h5------||--------------7---7-7h5-----|
|-----------7----||------------------------7---|
|----------------||----------------------------|
(2x)

__________________________________________________

This one here just follows the riff above
nearby the end of the song.


(3:32):


|-----------------||----8-----|
|--10-10-10h8-----||--8-------|
|-------------9---||----------|
|-----------------||----------|
|-----------------||----------|
|-----------------||----------|
(3x)

|-----------------||--10b12r10-8-10-----------------|
|--10-10-10h8-----||----------------10--10-10h8-----|
|-------------9---||----------------------------9---|
|-----------------||--------------------------------|
|-----------------||--------------------------------|
|-----------------||--------------------------------|
(2x)

__________________________________________________

That's it. 
Hope you find it useful!
Tap to rate this tab
# A B C D E F G H I J K L M N O P Q R S T U V W X Y Z