Song name
# A B C D E F G H I J K L M N O P Q R S T U V W X Y Z

Gravia - Break Free tab

                                  Break Free                                    


Bass
      Guitar Starts                                             
      W                   W                   W                 
F#||-------------------|-------------------|-------------------|
C#||-------------------|-------------------|-------------------|
G#||-------------------|-------------------|-------------------|
C#||-------------------|-------------------|-------------------|
 
 
  W                   W                   W                   W                 
-------------------|-------------------|-------------------|-------------------|
-------------------|-------------------|-------------------|-------------------|
-------------------|-------------------|-------------------|-------------------|
-------------------|-------------------|-------------------|-------------------|
 
 
  W                 
-------------------|
-------------------|
-------------------|
-------------------|
 
 
    Everything kicks in, FUCKING HUGE!                       
    E                                  E  E  E  E  E  E  E   
|-----------------------------------------------------------|
|*----------------------------------------------------------|
|*----------------------------------------------------------|
|---0----------------------------------0--0--7--5--0--5--7--|
 
 
  E  E  E  E  E  E  E  E     E  E  E  E  E  E  E  E   
--------------------------|--------------------------|
--------------------------|--------------------------|
--------------------------|--------------------------|
--0--0--0--8--7--0--5--7--|--0--0--0--7--5--0--5--7--|
 
 
  E  E  E  E  E  E  E  E     E  E  E  E  E  E  E  E   
--------------------------|--------------------------|
--------------------------|--------------------------|
--------------------------|--------------------------|
--0--0--0--8--7--5--7--8--|--0--0--0--7--5--0--5--7--|
 
 
  E  E  E  E  E  E  E  E     E  E  E  E  E  E  E  E   
--------------------------|--------------------------|
--------------------------|--------------------------|
--------------------------|--------------------------|
--0--0--0--8--7--0--5--7--|--0--0--0--7--5--0--5--7--|
 
 
  E  E  E  E   H               E  E  H.              E  E  Q.     E  Q     
--------------------------||----------------------|-----------------------|
------------------------*-||*---------------------|-----------------------|
------------------------*-||*---------------------|-----------------------|
--0--3--0--3b--L----------||---0--0---------------|--0--0---------0-------|
 
 
  E  E  H.              Q    E  E  E  E  Q       E  E  H.            
---------------------|------------------------|---------------------|
---------------------|------------------------|---------------------|
---------------------|------------------------|---------------------|
--0--0---------------|-------0--0--0--0-------|--0--0---------------|
 
 
  E  E  Q.     E  Q       E  E  H.              E  E  E  E   H            
-----------------------|---------------------|--------------------------||
-----------------------|---------------------|------------------------*-||
-----------------------|---------------------|------------------------*-||
--0--0---------0-------|--0--0---------------|--0--3--0--3b--L----------||
 
 
   H        H           W                   H        H         
---------------------|-------------------|--------------------|
*--------------------|-------------------|--------------------|
*--------------------|-------------------|--------------------|
---0--------0--------|--L----------------|--5--------5--------|
 
 
  W                   Q.     E  E  E   Q        E   Q.      H         
-------------------|------------------------|------------------------|
-------------------|------------------------|------------------------|
-------------------|------------6--8--------|------------------------|
--L----------------|--8------8--------10----|---L--10------10--------|
 
 
                                  -\3                                 
  E  Q    E  H           H        H              E  Q    E  H         
----------------------|----------------------||----------------------|
----------------------|--------------------*-||----------------------|
----------------------|--------------------*-||----------------------|
--0--3----0--3--------|--L--------3----------||--0--3----0--3--------|
 
 
  E  E  E  E  E  E  E  E     E  E  H.              E  E  Q.     E  Q     
--------------------------|---------------------|-----------------------|
--------------------------|---------------------|-----------------------|
--------------------------|---------------------|-----------------------|
--L--0--1--0--1--0--1--3--|--0--0---------------|--0--0---------0-------|
 
 
                        -\1                                        
  E  E  H.              W                   Q.     E  E  E  E  E   
---------------------|-------------------|------------------------|
---------------------|-------------------|------------------------|
---------------------|-------------------|------------------------|
--0--0---------------|--0----------------|--0------7--5--0--5--7--|
 
 
  Q.     E  E  E  E  E     Q.     E  E  E  E  E     E  E  E  E   H         
------------------------|------------------------|------------------------|
------------------------|------------------------|------------------------|
------------------------|------------------------|------------------------|
--0------8--7--0--5--7--|--0------7--5--0--5--7--|--0--3--0--3b--L--------|
 
 
  E  E  H.              E  E  Q.     E  Q       E  E  H.            
---------------------|-----------------------|---------------------|
---------------------|-----------------------|---------------------|
---------------------|-----------------------|---------------------|
--0--0---------------|--0--0---------0-------|--0--0---------------|
 
 
  Q    E  E  E  E  Q       E  E  H.              E  E  Q.     E  Q     
------------------------|---------------------|-----------------------|
------------------------|---------------------|-----------------------|
------------------------|---------------------|-----------------------|
-------0--0--0--0-------|--0--0---------------|--0--0---------0-------|
 
 
  E  E  H.              E  E  E  E  E  E  E  E   
---------------------|--------------------------|
---------------------|--------------------------|
---------------------|--------------------------|
--0--0---------------|--0--0--3--3--5--5--7--7--|
 
 
  Building the mood here                                                  
  E                      E  E  E  E  E  E  E     E  E  E  E  E  E  E  E   
----------------------------------------------|--------------------------|
----------------------------------------------|--------------------------|
----------------------------------------------|--------------------------|
--0----------------------0--0--7--5--0--5--7--|--0--0--0--8--7--0--5--7--|
 
 
  E  E  E  E  E  E  E  E     E  E  E  E  E  E  E  E   
--------------------------|--------------------------|
--------------------------|--------------------------|
--------------------------|--------------------------|
--0--0--0--7--5--0--5--7--|--0--0--0--8--7--5--7--8--|
 
 
  E  E  E  E  E  E  E  E     E  E  E  E  E  E  E  E   
--------------------------|--------------------------|
--------------------------|--------------------------|
--------------------------|--------------------------|
--0--0--0--7--5--0--5--7--|--0--0--0--8--7--0--5--7--|
 
 
  E  E  E  E  E  E  E  E     E  E  E  E   H           W                 
--------------------------|------------------------|-------------------|
--------------------------|------------------------|-------------------|
--------------------------|------------------------|-------------------|
--0--0--0--7--5--0--5--7--|--0--3--0--3b--L--------|-------------------|
 
 
    H        H           W                   H        H         
|---------------------|-------------------|--------------------|
|*--------------------|-------------------|--------------------|
|*--------------------|-------------------|--------------------|
|---0--------0--------|--L----------------|--5--------5--------|
 
 
  W                   Q.     E  E  E   Q        E   Q.      H         
-------------------|------------------------|------------------------|
-------------------|------------------------|------------------------|
-------------------|------------6--8--------|------------------------|
--L----------------|--8------8--------10----|---L--10------10--------|
 
 
                                  -\3                                 
  E  Q    E  H           H        H              E  Q    E  H         
----------------------|----------------------||----------------------|
----------------------|--------------------*-||----------------------|
----------------------|--------------------*-||----------------------|
--0--3----0--3--------|--L--------3----------||--0--3----0--3--------|
 
 
  E  E  E  E  E  E  E  E     H        Q.     E     E   Q.     Q.     E   
--------------------------|---------------------|-----------------------|
--------------------------|---------------------|-----------------------|
--------------------------|---------------------|-----------------------|
--L--0--1--0--1--0--1--3--|--5--------5------0--|--5s--7------7------0--|
 
 
                              -\6         -\6                            
  E   Q.     Q.     E     E   Q    E  E   Q    E     H        Q.     E   
-----------------------|--------------------------|---------------------|
-----------------------|--------------------------|---------------------|
-----------------------|--------------------------|---------------------|
--7s--8------8------0--|--0--10----0--0--10----0--|--5--------5------0--|
 
 
                                                 Drum Solo         
                                     -\4                           
  E   Q.     Q.     E     E   Q.     H           W                 
-----------------------|----------------------|-------------------|
-----------------------|----------------------|-------------------|
-----------------------|----------------------|-------------------|
--5s--7------7------0--|--7s--8------8--------|-------------------|
 
 
  H        Q.     E     E   Q.     Q.     E     E   Q.     Q.     E   
---------------------|-----------------------|-----------------------|
---------------------|-----------------------|-----------------------|
---------------------|-----------------------|-----------------------|
--5--------5------0--|--5s--7------7------0--|--7s--8------8------0--|
 
 
      -\6         -\6                                                    
  E   Q    E  E   Q    E     H        Q.     E     E   Q.     Q.     E   
--------------------------|---------------------|-----------------------|
--------------------------|---------------------|-----------------------|
--------------------------|---------------------|-----------------------|
--0--10----0--0--10----0--|--5--------5------0--|--5s--7------7------0--|
 
 
                                                              -\5               
  E   Q.     Q.     E      E   E   E   E   E   E   E   E      W                 
-----------------------|----------------------------------|--------------------|
-----------------------|----------------------------------|--------------------|
-----------------------|----------------------------------|--------------------|
--7s--8------8------0--|--10--10--10--10--10--10--10--10--|--10----------------|
 
 
  Bass Solo Part                                                  
  E              E  E  E  E  E  E  E     E  E  E  E  E  E  E  E   
--------------------------------------|--------------------------|
--------------------------------------|--------------------------|
--------------------------------------|--------------------------|
--0--------------0--0--7--5--0--5--7--|--0--0--0--8--7--0--5--7--|
 
 
  E  E  E  E  E  E  E  E     E  E  E  E  E  E  E  E   
--------------------------|--------------------------|
--------------------------|--------------------------|
--------------------------|--------------------------|
--0--0--0--7--5--0--5--7--|--0--0--0--8--7--5--7--8--|
 
 
  Guitars Chug In, Building intensity                       
  E                                   E  E  E  E  E  E  E   
-----------------------------------------------------------|
-----------------------------------------------------------|
-----------------------------------------------------------|
--0-----------------------------------0--0--7--5--0--5--7--|
 
 
  E  E  E  E  E  E  E  E     E  E  E  E  E  E  E  E   
--------------------------|--------------------------|
--------------------------|--------------------------|
--------------------------|--------------------------|
--0--0--0--8--7--0--5--7--|--0--0--0--7--5--0--5--7--|
 
 
  E  E  E  E  E  E  E  E   
--------------------------|
--------------------------|
--------------------------|
--0--0--0--8--7--5--7-----|
 
 
  Everything kicks in, FUCKING HUGE!                       
  E                                  E  E  E  E  E  E  E   
----------------------------------------------------------|
----------------------------------------------------------|
----------------------------------------------------------|
--0----------------------------------0--0--7--5--0--5--7--|
 
 
  E  E  E  E  E  E  E  E     E  E  E  E  E  E  E  E   
--------------------------|--------------------------|
--------------------------|--------------------------|
--------------------------|--------------------------|
--0--0--0--8--7--0--5--7--|--0--0--0--7--5--0--5--7--|
 
 
  E  E  E  E  E  E  E  E     E  E  E  E  E  E  E  E   
--------------------------|--------------------------|
--------------------------|--------------------------|
--------------------------|--------------------------|
--0--0--0--8--7--5--7--8--|--0--0--0--7--5--0--5--7--|
 
 
  E  E  E  E  E  E  E  E     E  E  E  E  E  E  E  E     E  E  E  E   H         
--------------------------|--------------------------|------------------------|
--------------------------|--------------------------|------------------------|
--------------------------|--------------------------|------------------------|
--0--0--0--8--7--0--5--7--|--0--0--0--7--5--0--5--7--|--0--3--0--3b--L--------|
 
 
  W                   W                   W                   W                 
-------------------|-------------------|-------------------|-------------------|
-------------------|-------------------|-------------------|-------------------|
-------------------|-------------------|-------------------|-------------------|
-------------------|-------------------|-------------------|-------------------|
 
 
  W                   W                   W                 
-------------------|-------------------|-------------------|
-------------------|-------------------|-------------------|
-------------------|-------------------|-------------------|
-------------------|-------------------|-------------------|
 
 
              -\1                                                
  H        E  Q.          H        H           W                 
---------------------||---------------------|-------------------|
---------------------||*--------------------|-------------------|
---------------------||*--------------------|-------------------|
--------------0------||---0--------0--------|--L----------------|
 
 
  H        H           W                   Q.     E  E  E   Q     
--------------------|-------------------|------------------------|
--------------------|-------------------|------------------------|
--------------------|-------------------|------------6--8--------|
--5--------5--------|--L----------------|--8------8--------10----|
 
 
                                                           -\3          
   E   Q.      H           E  Q    E  H           H        H         4x 
------------------------|----------------------|----------------------||
------------------------|----------------------|--------------------*-||
------------------------|----------------------|--------------------*-||
---L--10------10--------|--0--3----0--3--------|--L--------3----------||
 
 
   H        H           W                   H        H         
---------------------|-------------------|--------------------|
*--------------------|-------------------|--------------------|
*--------------------|-------------------|--------------------|
---0--------0--------|--L----------------|--5--------5--------|
 
 
  W                    H         H           W                 
-------------------|----------------------|-------------------|
-------------------|----------------------|-------------------|
-------------------|----------------------|-------------------|
--L----------------|--12--------12--------|--L----------------|
 
 
  H        H           W                   W                  
--------------------|-------------------|-------------------||
--------------------|-------------------|-------------------||
--------------------|-------------------|-------------------||
--5--------5--------|--L----------------|--0----------------||
 
 
 
 
Duration Legend
---------------
W - whole
H - half
Q - quarter
E - 8th
S - 16th
T - 32nd
X - 64th
. - note dotted
|-n-|  - n-tuplets
 
 
Tablature Legend
----------------
L - tied note
x - dead note
g - grace note
(n) - ghost note
> - accentuded note
NH - natural harmonic
AH - artificial harmonic
TH - tapped harmonic
SH - semi harmonic
PH - pitch harmonic
h - hammer on
p - pull off
b - bend
br - bendRelease
pb - preBend
pbr - preBendRelease
brb - bendReleaseBend
\n/ - tremolo bar dip
\n - tremolo bar dive
-/n - tremolo bar Release up
/n\ - tremolo bar inverted dip
/n - tremolo bar return
-\n - tremolo bar Release down
S - shift slide
s - legato slide
/ -  slide into from below or out of upwards
\ -  slide into from above or out of downwards
~ - vibrato
W - wide vibrato
tr - tril'
TP - tremolo picking
T - tapping
S - slap
P - pop
< - fade in
^ - brush up
v - brush down

Tap to rate this tab
 
# A B C D E F G H I J K L M N O P Q R S T U V W X Y Z