Song name
# A B C D E F G H I J K L M N O P Q R S T U V W X Y Z

Gravity Kills - Personal Jesus tab

Band: Gravity Kills
Song: Personal Jesus (Depeche Mode cover)

Tabbed by Andreas Karlsson

This is the demo version, a bit different than the version that
appears on Superstarved. The riffs are basically the same though.

-----

Standard tuning

p.m. = Palm mute

-----


    E5   E5    E5   E5    E5   E5    E5   E5
G|----------|----------|----------|----------|
D|----------|----------|----------|----------|
A|--2----2--|--2----2--|--2----2--|--2----2--|
E|--0----0--|--0----0--|--0----0--|--0----0--|
                       (Drums enter)


 (Play this pattern twice before vocals enter -->)                                       F5
G|---------------------------------------------|---------------------------------------------|
D|--------------2---------------------2--------|--------------2---------------------2--------|
A|---------------------------------------------|-----------------------------------------3---|
E|-0----3----0-------3--0----0--3--0-------3---|-0----3----0-------3--0----0--3--0-------1---|
                                                                                      1. Your

                                                                                         F5
G|---------------------------------------------|---------------------------------------------|
D|--------------2---------------------2--------|--------------2---------------------2--------|
A|---------------------------------------------|-----------------------------------------3---|
E|-0----3----0-------3--0----0--3--0-------3---|-0----3----0-------3--0----0--3--0-------1---|
1. own        -         personal        -       Jesus
2. own        -         personal        -       Jesus
                                                                        G5(p.m.)    F#5(p.m.)
G|---------------------------------------------|--------------2-----------------------------------|
D|--------------2---------------------2--------|--------------------------------------------------|
A|---------------------------------------------|-0----3----0-------3----5-5-5-5-5-5-4-4-4-4-4-4-4-|
E|-0----3----0-------3--0----0--3--0-------3---|------------------------3-3-3-3-3-3-2-2-2-2-2-2-2-|
1. Someone to hear your prayers  -   Someone who cares                                   2. Your
2. Someone to hear your prayers  -   Someone who's there
                                                                                         F5
G|---------------------------------------------|---------------------------------------------|
D|--------------2---------------------2--------|--------------2---------------------2--------|
A|---------------------------------------------|-----------------------------------------3---|
E|-0----3----0-------3--0----0--3--0-------3---|-0----3----0-------3--0----0--3--0-------1---|

(E)
Feeling unknown when you're all alone
(G)                     (D)
Flesh and bone - by the telephone
(A)                         (Bm)         (C)
Lift up the receiver - I'll make you a beleiver

                                           F5
G|---------------------------------------------|
D|--------------2---------------------2--------|
A|-----------------------------------------3---|
E|-0----3----0-------3--0----0--3--0-------1---|

(E)
Take second best - put me to the test
(G)                          (D)
Things on your chest that we need to confess
(A)                  (Bm)          (C)
I will deliver - you know I'm a forgiver
                                           F5    F#5             F5
G|---------------------------------------------|---------------------------------|
D|--------------2---------------------2--------|---------------------------------|
A|-----------------------------------------3---|-4-4-4-4-4-4-4-4-3-3-3-3-3-3-3-3-|
E|-0----3----0-------3--0----0--3--0-------1---|-2-2-2-2-2-2-2-2-1-1-1-1-1-1-1-1-|
                                                                 Reach out and touch faith
                                           F5
G|---------------------------------------------|
D|--------------2---------------------2--------|
A|-----------------------------------------3---|
E|-0----3----0-------3--0----0--3--0-------1---|
                                        3. Your
                                                                                         F5
G|---------------------------------------------|---------------------------------------------|
D|--------------2---------------------2--------|--------------2---------------------2--------|
A|---------------------------------------------|-----------------------------------------3---|
E|-0----3----0-------3--0----0--3--0-------3---|-0----3----0-------3--0----0--3--0-------1---|
3. own         -        personal        -       Jesus
4. own         -        personal        -       Jesus
                                                                        G5(p.m.)    F#5(p.m.)
G|---------------------------------------------|--------------2-----------------------------------|
D|--------------2---------------------2--------|--------------------------------------------------|
A|---------------------------------------------|-0----3----0-------3----5-5-5-5-5-5-4-4-4-4-4-4-4-|
E|-0----3----0-------3--0----0--3--0-------3---|------------------------3-3-3-3-3-3-2-2-2-2-2-2-2-|
3. Someone to hear your prayers  -   Someone who cares                                   4. Your
4. Someone to hear your prayers  -   Someone who's there
                                                                                         F5
G|---------------------------------------------|---------------------------------------------|
D|--------------2---------------------2--------|--------------2---------------------2--------|
A|---------------------------------------------|-----------------------------------------3---|
E|-0----3----0-------3--0----0--3--0-------3---|-0----3----0-------3--0----0--3--0-------1---|

(E)
Feeling unknown when you're all alone
(G)                     (D)
Flesh and bone - by the telephone
(A)                         (Bm)         (C)
Lift up the receiver - I'll make you a beleiver

                                           F5
G|---------------------------------------------|
D|--------------2---------------------2--------|
A|-----------------------------------------3---|
E|-0----3----0-------3--0----0--3--0-------1---|

(A)                  (Bm)          (C)
I will deliver - you know I'm a forgiver
                                           F5    F#5             F5
G|---------------------------------------------|---------------------------------|
D|--------------2---------------------2--------|---------------------------------|
A|-----------------------------------------3---|-4-4-4-4-4-4-4-4-3-3-3-3-3-3-3-3-|
E|-0----3----0-------3--0----0--3--0-------1---|-2-2-2-2-2-2-2-2-1-1-1-1-1-1-1-1-|
                                                                 Reach out and touch faith
                                                                 Reach out and touch faith
                                                                 Reach out and touch faith

                                           F5    F#5             F5
G|---------------------------------------------|---------------------------------|
D|--------------2---------------------2--------|---------------------------------|
A|-----------------------------------------3---|-4-4-4-4-4-4-4-4-3-3-3-3-3-3-3-3-|
E|-0----3----0-------3--0----0--3--0-------1---|-2-2-2-2-2-2-2-2-1-1-1-1-1-1-1-1-|


[Break]


G|---------------------------------------------|
D|--------------2---------------------2--------|
A|---------------------------------------------|
E|-0----3----0-------3--0----0--3--0-------3---|

                                           F5    F#5             F5
G|---------------------------------------------|---------------------------------|
D|--------------2---------------------2--------|---------------------------------|
A|-----------------------------------------3---|-4-4-4-4-4-4-4-4-3-3-3-3-3-3-3-3-|
E|-0----3----0-------3--0----0--3--0-------1---|-2-2-2-2-2-2-2-2-1-1-1-1-1-1-1-1-|
                                                                 Reach out and touch faith
                     (Reach out)                                 Reach out and touch faith
                     (Reach out)                                 Reach out and touch faith

                                           F5    F#5             F5
G|---------------------------------------------|---------------------------------|
D|--------------2---------------------2--------|---------------------------------|
A|-----------------------------------------3---|-4-4-4-4-4-4-4-4-3~~~~-----------|
E|-0----3----0-------3--0----0--3--0-------1---|-2-2-2-2-2-2-2-2-1~~~~-----------|
                     (Reach out)                                 Reach out and touch faith

Tap to rate this tab
# A B C D E F G H I J K L M N O P Q R S T U V W X Y Z