Guitaretab - guitar tabs
Song name
# A B C D E F G H I J K L M N O P Q R S T U V W X Y Z

Gray Matter - Give Me A Clue tab

-------------------------------------------------------------------------------
			 Give Me a Clue, Gray Matter
-------------------------------------------------------------------------------
Tabbed by: Perdix
Email: angel.padilla@gmail.com

Tuning: Standard

e|---------------------------------------------------------------------------|
B|---------------------------------------------------------------------------|
G|---------------------------------------------------------------------------|
D|---------------------------------------------------------------------------|
A|----5-6-6-5-5-6-6-5-5-6-6-5-5-6-6---6-8-8-6-6-8-8-6-6-8-8-6-6-8-8-6--------|
E|---------------------------------------------------------------------------|
[ Tab from: http://www.guitaretab.com/g/gray-matter/66321.html ]
e|---------------------------------------------------------------------------|
B|---------------------------------------------------------------------------|
G|---------3-----------------------------------------------------------------|
D|-----5---3---2---3---------------------------------------------------------|
A|-----5---1---2---3---------------------------------------------------------|
E|-----3-------0---1---------------------------------------------------------|

e|---------------------------------------------------------------------------|
B|--88888888888888888888888888888888-9999999999999999------------------------|
G|---------------------------------------------------------3-----------------|
D|--55555555555555555555555555555555-6666666666666666--5---3---2---3---------|
A|-----------------------------------------------------5---1---2---3---------|
E|-----------------------------------------------------3-------0---1---------|

e|---------------------------------------------------------------------------|
B|-----9999999999999999-8888888888888888-9999999999999999-8888888888888888---|
G|---------------------------------------------------------------------------|
D|-----6666666666666666-5555555555555555-6666666666666666-5555555555555555---|
A|---------------------------------------------------------------------------|
E|---------------------------------------------------------------------------|


| /  slide up
| \  slide down
| h  hammer-on
| p  pull-off
| ~  vibrato
| +  harmonic
| x  Mute note
===============================================================================

Related for Give Me A Clue tab