Guitaretab - guitar tabs
Song name
# A B C D E F G H I J K L M N O P Q R S T U V W X Y Z

Gray Matter - Phobias tab

this is my first tab ever. well...i figure out songs all the
time but i've never actually posted one so...yeah. haha
     

intro riff
     e---------------------------------------------------|
     B---------------------------------------------------|
     G------10-X-9999------------------------------------|
     D-9999-10-X-9999-9999-12-X-10101010-----------------|
     A-9999-8--X-7777-9999-12-X-10101010-----------------|
     E-7777-----------7777-10-X-9-9-9-9------------------|

intro solo
1)
     e---------------------------------------|
     B------------7-6------------------------|
     G----6-7-6-------9-7--------------------|
     D--9-------9---------9-(s)16(s)0--------|
     A---------------------------------------|
     E---------------------------------------|
(do that little slide at the end fast like you know what you're doing haha)


i think the verses are the same as the intro riff. it sounds right to me.

other solo thing
2)
     e---------------------------------------|
     B---------------------------------------|
     G----6-7-9-11-9-7-9-11/12/11-14-16-18---|
     D--9------------------------------------|
     A---------------------------------------|
     E---------------------------------------|
[ Tab from: http://www.guitaretab.com/g/gray-matter/69405.html ]
or it can be played like so:
     e--------------------------7--9--------|
     B---------7-------7/8/7-10-------------|
     G---6-7-9-----9-7-9--------------------|
     D-9------------------------------------|
     A--------------------------------------|
     E--------------------------------------|
which ever you prefer

little break down bridge thing
3)
     e------------------------12-12(s)14-----|
     B----------12-12(s)14-12----------------|
     G-----11~-------------------------------|
     D-11~-----------------------------------|
     A---------------------------------------|
     E---------------------------------------|


     e---------------------------------------|
     B---------------------------------------|
     G----6-7-9-11---------------------------|
     D--9------------------------------------|
     A---------------------------------------|
     E---------------------------------------|


     e---7-----------------------------------|X4
     B---10(b)-------------------------------|
     G---------------------------------------|
     D---------------------------------------|
     A---------------------------------------|
     E---------------------------------------|


the little solo things are in the right order. if you have any comments or
you think i should change something, feel freel to email me at punkimpostor@yahoo.com.

Related for Phobias tab