Song name
# A B C D E F G H I J K L M N O P Q R S T U V W X Y Z

Grease - Grease Lightning tab

e---------------------------------------------------------------------------|
B-----------1-1-0-0--------------------1-3-1--4-4--3-3--1-1-----------------|
G------0--2---------2-2--------------2----------------------2---------------|
D----2------------------1---------3----------------------------0------------|
A--3----------------------3-------------------------------------------------|
E---------------------------------------------------------------------------|

e---------------------------------------------------------------------------|
B----0------3----3-1--3-----0-0-0-0-0-0-0-0-0-0-0-0-------------------------|
G--0---0------------------2-------------------------------------------------|
D---------------------------------------------------------------------------|
A---------------------------------------------------------------------------|
E---------------------------------------------------------------------------|

    and that is that.
Tap to rate this tab
 
# A B C D E F G H I J K L M N O P Q R S T U V W X Y Z