Song name
# A B C D E F G H I J K L M N O P Q R S T U V W X Y Z

Great Lake Swimmers - Put There By The Land tab

Put There by the Land by Great Lake Swimmers

Tuning: D A D G B E

E--------------------------------------------------------------------------|
B--------------------------------------------------------------------------|
G--------------------------------------------------------------------------|
D---0---0---0---0---0---0---0---0---0---0---0---0---0---0---0---0----------|
A--------------------------------------------------------------------------|
D-4---5---5---7---0---0---4---5---7---0---0---4---5---7---9---0---0--------|

E--------------------------------------------------------------------------|
B--------------------------------------------------------------------------|
G--------------------------------------------------------------------------|
D---0---0---0---0----------------------------------------------------------|
A--------------------------------------------------------------------------|
D-4---5---7---0------------------------------------------------------------|

It is the whole song, there is a little strum in there, I don't really know where it is. 
just strum DAD open and it sounds alright but if somebody knows what it really is 
say something!
Tap to rate this tab
# A B C D E F G H I J K L M N O P Q R S T U V W X Y Z