Song name
# A B C D E F G H I J K L M N O P Q R S T U V W X Y Z

Great Lake Swimmers - Bodies And Minds tab

Great Lake Swimmers
"Bodies and Minds"


Haven't had much experience in writing tabs, but I wanted to give this song a try 
it's so beautiful.There might be minor flaws in the picking pattern, but it sounds pretty 
anyway.

Also, the timing doesn't appear properly in the pattern - you should listen to the song 
that!

Chords used:
----------------------------------------------

Bm* :x24430 (note the open e string)
A   :x02220
G   :320003
D   :xx0232

Picking pattern:
----------------------------------------------

Intro + Verse + Chorus

   Bm*			   A
E|-------0----------------------0---------------|
B|--3-------3-----3--3------2------2---2--2-----|
G|----4--------4--------4-----2------2-------2--|
D|----------------------------------------------|
A|--2-----------------------0-------------------|
E|----------------------------------------------|

  G				  D
------3-------3-------3--------------2-------2-------2-----|
---------0-------0------0----0----------3-------3------3---|
---0--------0-------0-----0-------2--------2-------2-----2-|
-------------------------------0---------------------------|
-----------------------------------------------------------|
-3---------------------------------------------------------|


  Bm*        A          G      D
O hold me, O holy, O golden, O grace
Bm*                     A
Down here in fear, down where none can hear
    G            D
Any whisper, any word

Etc etc!

Rest of the lyrics (from Songmeanings.net)
---------------------------------------------
Dont wanna, you wanna
Dont wanna, you wanna
Dont wanna, you wanna
Dont wanna, you wanna
Dont wanna, you wanna
No sudden moves
Dont wanna, you wanna
Dont wanna, you wanna
Dont wanna, you wanna
Dont wanna, you wanna
Dont wanna, you wanna
No sudden moves

Singing sorry to you, and sorry to you
Sleep wont come till Im sorry to you
For my body and my mind
Singing sorry to you, and sorry to you
Sleep wont come till Im sorry to you
From my body and my mind

Dont wanna, you wanna
Dont wanna, you wanna
Dont wanna, you wanna
Dont wanna, you wanna
Dont wanna, you wanna
No sudden moves
Dont wanna, you wanna
Dont wanna, you wanna
Dont wanna, you wanna
Dont wanna, you wanna
Dont wanna, you wanna
You wanna see it through

Yeah, yeah, yeah, yeah
Yeah, yeah, yeah, yeah
Yeah, yeah, yeah, yeah

Yeah, yeah, yeah, yeah
Yeah, yeah, yeah, yeah
Yeah, yeah, yeah, yeah


//ch1ptune
Tap to rate this tab
# A B C D E F G H I J K L M N O P Q R S T U V W X Y Z