Song name
# A B C D E F G H I J K L M N O P Q R S T U V W X Y Z

Great Lake Swimmers - Merge A Vessel A Harbour tab

Song Title: Merge, A Vessel, A Harbour
Artist: Great Lake Swimmers
Album: Great Lake Swimmers

Tabbed by Charlie Lewis - sci-fi-lullaby@hotmail.co.uk

Standard tuning
3/4 timing



INTRO

 1  2  3   1  2  3   1  2  3   1  2  3

|-----1--1|-----1--1|-----1--1|-----1--1|
|-----3--3|-----3--3|-----3--3|-----3--3|
|---2-----|---2-----|---2-----|---2-----|
|0--------|---------|0--------|---------|
|---------|0--------|---------|0--------|
|---------|---------|---------|---------|


|-----1--1|-----1--1|-----1--1|-----1--1|
|-----3--3|-----3--3|-----3--3|-----3--3|
|---2-----|---2-----|---2-----|---2-----|
|0--------|---------|0--------|---------|
|---------|0--------|---------|0-----0--|
|---------|---------|---------|---------|



VERSES:

Merge, a vessel, a harbour.....

                     Repeat these 2 bars
                     before Chorus part
                    |:                 :|
|---------|---------|-----1--1(1)0--0---|
|-----3---|-----5--5|-----3--3(3)3--3---|
|-----3--3|-----5--5|---2--2--|2--2--2--|
|---3--3-0|---5--5--|0--0--0--|0--0--0--|
|1--------|3--------|---------|--------0|
|---------|---------|---------|---------|



CHORUS x2

Fly into the mouth of the ground..

|---------|---------|-----1--1(1)1--1---|
|-----3---|-----5--5|-----3--3(3)3--3---|
|-----3--3|-----5--5|---2--2--|2--2--2--|
|---3--3-0|---5--5--|0--0--0--|0--0--0--|
|1--------|3--------|---------|--------0|
|---------|---------|---------|---------|


Six feet under, thanks to some failure

                     Repeat before return 
                           to verse
                    |:                 :|
|---------|---------|-----1--1(1)0--0---|
|-----3---|-----5--5|-----3--3(3)3--3---|
|-----3--3|-----5--5|---2--2--|2--2--2--|
|---3--3-0|---5--5--|0--0--0--|0--0--0--|
|1--------|3--------|---------|--------0|
|---------|---------|---------|---------|

Comments and corrections welcome.

Merge, a vessel, a harbour
A perfect union
Of gift and reception
Each an eye
On the same face
Loss and gain

Fly into the mouth of the ground
Six feet under
Thanks to some failure
Fly into the mouth of the ground
Six feet under

One for the night
One for the dark
Taste each other
For a moment, then combined
Polarised
Share the same air
Oh lay it down
Oh lay it bare

I'm speechless
Naked as a fiery sunset
You turn, not fleeting
Destroyed not complete
A perfect cacophony
Rising like vapour
Solid and liquid
Awkward and trapping
Stolen but paid for

Legs and knees and ankles and toes
When it burns an old enemy flows
Legs and knees and ankles and toes
When it burns an old enemy flows

Gathered and strewn
From this altitude
To some other moon
Wearing false armour
And useless shields
Failed to exist

Crying out and into the streets
They are always prepared for the cries
Prepared for the worst
Crying outloud at the untold
They are transfixed but not transformed

Stop accomodating echoes
Into these hard-pressed streets
Into these well-travelled streets
Into these hard-pressed streets
Tap to rate this tab
# A B C D E F G H I J K L M N O P Q R S T U V W X Y Z