Song name
# A B C D E F G H I J K L M N O P Q R S T U V W X Y Z

Great Lake Swimmers - Moving Pictures Silent Films tab

So this song is really easy, the two other tabs that are up are both right except 
i like to play it with the D/F as opposed to F#M i think it sounds much better.

the intro is pretty much played throughout the whole thing except the chorus

e|--------------------------------------|
B|--------------------------------------|
G|-------------------0-----0----------0-|
D|--9-----7----5----4----2--2----2---4--|
A|10-10--9-9--7-7--5----3-3--3--3-3--5--|
E|--------------------------------------|


Oh wake me please when this is over

Oh when the ice is melted away
    
and the hunger returns
                 
i will be the same but older
    
and maybe twice the man that i thought i was

***Then the strumming begins***

G              D/F
Where have you been?
    Em           D      C
And what have you done?
          D         G
I've been under the ground
D/F     Em          D        C
Reading prayers from this old book I found
D         G
Under the ground
D/F        Em
Saving it up
    D           C
And spending it all
   D      (Here you go back to the picking pattern)
On moving pictures Silent Films

moving pictures silent films


e|--------------------------------------|
B|--------------------------------------|
G|-------------------0-----0----------0-|
D|--9-----7----5----4----2--2----2---4--|
A|10-10--9-9--7-7--5----3-3--3--3-3--5--|
E|--------------------------------------|

Oh is this the dream I've been saving?
Oh where the heart beats slower and slower
To almost nothing
Almost nothing
Almost nothing


*** start the strumming pattern again***
- G D/F EM D C D -

I took it for love or
At least something beautiful
Out there in the spotlight
I turned around suddenly
Turned around squinting
And saw that it was headlights
And then the truth
The truth was unbearable
Oh and iminent 
Bearing down on these two shadowed animals

e|--------------------------------------|
B|--------------------------------------|
G|-------------------0-----0----------0-|
D|--9-----7----5----4----2--2----2---4--|
A|10-10--9-9--7-7--5----3-3--3--3-3--5--|
E|--------------------------------------|

Caught painting a dotted line
Caught painting a dotted line


***strumming***

-G D/F EM D C D-

Where have you been?
And what have you done?

I've been under the ground
Eating prayers from this old book I found
Under the ground
Saving it up 
And spending it all
On moving pictures
Silent films
Moving pictures
Silent films
Tap to rate this tab
 
# A B C D E F G H I J K L M N O P Q R S T U V W X Y Z