Song name
# A B C D E F G H I J K L M N O P Q R S T U V W X Y Z

Great Northern - Home chords

Highlighted       Show chord diagrams
Great Nothern-Home

I saw the other chord tab for this and noticed some mistakes so
I'm gonna try to make a more accurate tab.


Chords:

      G   A   C   F   D   Dm    D#
   e -3---0---0---1---2---1-----1----6----|
   b -3---2---1---1---3---3-----3----8----|
   G -0---2---0---2---2---2-----3----8----|
   D -0---2---2---3---0---0-----3----8----|
   A -2---0---3---3-------------1----6----|
   E -3-----------1-----------------------|


Intro:

      G           A         C         G
   e -----------------------------------------------------------------------|
   b -----------------------------------------------------------------------|
   G -4--------7--6------9--7------9--7-------------------------------------|
   D -----------------------------------------------------------------------|
   A -------------0---------------------------------------------------------|
   E -3---------------------8---------3-------------------------------------|

play that twice

Verse:
  G              A        C                    G
   Take all your medicine, it's gonna make you well
  G                             A
   You'll have to run till it's over
       C                      G
   I'm sure you'll be able to tell
          F         C
   You'll know it's over
           D
   For the rest of your life your gonna be high

Chorus:
  G     Dm   A#                          C
   Come home, it's something less than a holiday
         G       Dm
   when you come home
  A#                          C
   It's something less than a holiday
              D#          D          G
   They'll be sneaking up behind you again

Verse:
  G            A          C                    G
   Talk to the doctor, he said you're well for home
  G              A            C                 G
   Take all your medicine, be sure you're never alone
          F         C
   You'll know it's over
           D
   For the rest of your life you're gonna be high

Chorus:
  G     Dm   A#                          C
   Come home, it's something less than a holiday
          G      Dm   A#                          C
   When you come home, it's something less than a holiday
              D#          D            G
   They'll be sneaking up behind you again

Solo:

      G       A            C          G        
        A          C
   e -----------------------------------------------------------------------|
   b -8-------8/10--5------8----8/10--8--------8----10---12----14---13------|
   G -----------------------------------------------------------------------|
   D -----------------------------------------------------------------------|
   A -----------------------------------------------------------------------|
   E -----------------------------------------------------------------------|

      G     F     C               D
   e -----------------------------------------------------------------------|
   b -12----10----5----5b6r5b6r5-----\3-------------------------------------|
   G -----------------------------------------------------------------------|
   D -----------------------------------------------------------------------|
   A -----------------------------------------------------------------------|
   E -----------------------------------------------------------------------|


Chorus:

  G     Dm   A#                          C
   Come home, it's something less than a holiday
          G      Dm   A#                          C
   When you come home, it's something less than a holiday
          G      Dm   A#                          C
   When you come home, it's something less than a holiday
          G      Dm   A#                          C
   When you come home, it's something less than a holiday
          G      Dm   A#                          C
   When you come home, it's something less than a holiday
          G
   When you...


Key:

   b-bend
   r-release
   /-slide up
   \-slide down


Finished
Tap to rate this tab
# A B C D E F G H I J K L M N O P Q R S T U V W X Y Z