Song name
# A B C D E F G H I J K L M N O P Q R S T U V W X Y Z

Great White - Bitches Other Women tab

This is my first Tab, of a song I really like.
It's a cover by Great White on Rolling Stones "Bitch"

(Personally I like Great White's version a lot better! )

This is basically the main riff... You'll have to figure out the other licks and stuff yourself.

Good luck! I hope this can be of any help.
(Standard tuning)
h=hammer
p=pull


--------------------------3--------------------------------------------------|
--------------------------3--------------------------------------------------|
-0---0---0---0----5---3----------0---0-------5---3----0----------------------|
-------3---3---3--5---3------0-----------3---5---3--------h3p0---------------|
-----------------------------------------------------------------3-----------|
---------------------------------------------------------------------3-------|


-----------------------------------------------------------------------------|
-----------------------------------------------------------------------------|
-0---0---0---0----5---3----------0---0-------5---3---5---3---0---------------|
-------3---3---3--5---3------0-----------3---5---3---5---3---0---------------|
-----------------------------------------------------------------------------|
-----------------------------------------------------------------------------|
Tap to rate this tab
 
# A B C D E F G H I J K L M N O P Q R S T U V W X Y Z