Song name
# A B C D E F G H I J K L M N O P Q R S T U V W X Y Z

Great White - She Only tab

-------------------------------------------------------------------------------
                             She Only - Great White
-------------------------------------------------------------------------------

This is just the solo. I think its really close to perfect.



Tuning: Standard tuning



e|-15-14-12-10-10/12vv--------------------------------------------------------------------|
B|--------------------12h13h15v-15/17v---15pbr-13-12vvv-----10fbr-10vvv---8/7-7h8--3-5vvv-|
G|----------------------------------------------------------------------------------------|
D|----------------------------------------------------------------------------------------|
A|----------------------------------------------------------------------------------------|
E|----------------------------------------------------------------------------------------|

e|--------------------15-17-19hbr-19vvvvv--19hbr-17p15h17-15-14vvvvvv-14hbr-hbr-hbr-fb-r--|
B|----------------------------------------------------------------------------------------|
G|-2-4------------------------------------------------------------------------------------|
D|-----4/5-5vvvv--------------------------------------------------------------------------|
A|----------------------------------------------------------------------------------------|
E|----------------------------------------------------------------------------------------|

e|12vvvvv-------------------------------------------14----14-15-17-15-17/-19-17vvvvvvvvv--|
B|--------12hbr-hbr-hbr-hbr-hbr------------/17---17----15---------------------------------|
G|------------------------------11-12vvvvv------------------------------------------------|
D|----------------------------------------------------------------------------------------|
A|----------------------------------------------------------------------------------------|
E|----------------------------------------------------------------------------------------|

e|14hbr-14hbr-14hbr-14fbr-12vvvvvvvv------------------------------------------------------|
B|-----------------------------------------15-14-12-14------------------15-14-12-14-------|
G|------------------------------------------------------12fb--------------------------12fb|
D|----------------------------------------------------------------------------------------|
A|----------------------------------------------------------------------------------------|
E|----------------------------------------------------------------------------------------|

e|----------------------------------------------------------------------------------------|
B|-15-14-12-14------15-14-12-14------15-14-12-14------15-14-12-14--------15-14-12-14------|
G|-------------12fb-------------12fb-------------12fb-------------12fb---------------12fb-|
D|----------------------------------------------------------------------------------------|
A|----------------------------------------------------------------------------------------|
E|----------------------------------------------------------------------------------------|

Please rate and comment to let me know how I did. :)

************************************

| /   slide up
| \   slide down
| h   hammer-on
| p   pull-off
| ~   vibrato
| +   harmonic
| x   Mute note
| b   Bend
| pb  Pre-bend
| br  Bend release
| pbr Pre-bend release
| brb Bend release bend

************************************
Tap to rate this tab
# A B C D E F G H I J K L M N O P Q R S T U V W X Y Z