Song name
# A B C D E F G H I J K L M N O P Q R S T U V W X Y Z

Great White - Bit Twice Shy tab

this song is great....the best of great white

guitar 1(dropped d)
guitar 2(standard tuning)

intro guitar 1

---------------------------------------------|
---------------------------------------------|
---------------------------------------------| if you have heard the song you
---------------------------------------------| will definetly get the feel of
--8--8-10--8-10--8--8-10-11-10-10-8-10-11-10-| this part.
--8--8--8--8--8--8--8-8--8--8--8--8-8--8--8--|

(piano comes in)

verse guitar 2

-----------------------------------------------------------|
-----------------------------------------------------------|
-----------------------------------------------------------|
-7-7-7-7-7-7-7-7-7-7-7-7-7-2-2-2-2-2-2-2-9-9-9-9-9-9-9-9---|  x2
-5-5-5-5-5-5-5-5-5-5-5-5-5-0-0-0-0-0-0-0-7-7-7-7-7-7-7-7---|
-----------------------------------------------------------|

-----------------------------------------------------------|
-----------------------------------------------------------|
-----------------------------------------------------------|
-----------------------------------5-5-5-5-5-5-5-----------|
-5-5-5-5-5-5-5-5-5-8-8-8-8-8-8-8-8-3-3-3-3-3-3-3-7-7-7-7-7-|
-3-3-3-3-3-3-3-3-3-6-6-6-6-6-6-6-6---------------5-5-5-5-7-|

(the chorus is exactly like the intro)

repeat verse then play a solo which i am looking into which is hard.
Tap to rate this tab
# A B C D E F G H I J K L M N O P Q R S T U V W X Y Z