Song name
# A B C D E F G H I J K L M N O P Q R S T U V W X Y Z

Greeley Estates - See Your Scars tab

Well, I've been trying all the tabs for this song i could find. However, they
each have something thats not right at one point in the song. This is what I
think it is. It sounds the same as the song. 


Capo : 3rd Fret

Verse    X4
--------------------------------|
-----0-0----------------1-1-0-0-|
-------------0---0--0-----------|          
-2-2-----4-4-------4--4---------|
--------------------------------|
--------------------------------|

--------------------------------|
-----0-0------------------------|
-------------0---0--0-----------|
-2-2-----4-4-------4--4-0-0-4-0-|
--------------------------------|
--------------------------------|

Pre Chorus X whenever chorus starts
--------------------------------|
--------------------------------|
--------------4-----------------|
-----1-1--4-4-------------------|   
-2-2----------------------------|
--------------------------------|

---------------------------------|
-1-1-0-0-1-1-0-0-0---------------|
-2-2-2-2-2-2-2-2-2--0-0-0-0--2-4-|
--------------------2-2-2-2--4-5-|
---------------------------------|
---------------------------------|

Chorus
---------------------------------|
---------------------------------|
-5-5-5----4-4-4------------------|
-7-7-7----5-5-5------------------|
-0-0-0---------------------------|
---------------------------------|

---------------------------------|
---------------------------------|
--------2-2-2---------5-5-5------|
-2-2-2--2-2-2--5-5-5--5-5-5------|
-2-2-2--0-0-0--5-5-5--3-3-3------|
-0-0-0---------3-3-3-------------|


Tap to rate this tab
# A B C D E F G H I J K L M N O P Q R S T U V W X Y Z