Song name
# A B C D E F G H I J K L M N O P Q R S T U V W X Y Z

Greeley Estates - Keep The Heat On The Dash tab

-------------------------------------------------------------------------------
                  KEEP THE HEAT ON THE DASH - Greeley Estates
-------------------------------------------------------------------------------
Tabbed by: mandeeface
Email: stripesonazebra@live.com
Comments: I've made this tab completely by ear. 
I cannot get the full thing down but this is what I hear. 
Feel free to change it around!
Tuning: Drop D

(Intro/Main Riff)
E|-------------------------------------------------|
B|-------------------------------------------------|
G|-------------------------------------------------|
D|--111/3-4-3--------6/8\6/3\4/3-------------------|
A|--111/3-4-3--x3----6/8\6/3\4/3-------------------|
D|--111/3-4-3--------6/8\6/3\4/3-------------------|

(Other Riff [MAINLY PLAYED AT PARTS LIKE AT 0:31])
E|---------------------------------------|---------|
B|---------------------------------------|---------|
G|---------------------------------------|---------|
D|--111-xxx---111-xxx---000-xxx---000-xxx|---------|
A|--111-xxx---111-xxx---000-xxx---000-xxx|x2-------|
D|--111-xxx---111-xxx---000-xxx---000-xxx|---------|

(Part at 0:44 [I KNOW THIS IS PROBABLY WRONG!)
E|-------------------------------------------------|
B|-------------------------------------------------|
G|-------------------------------------------------|
D|--14\11-11-11-11-11-11-11-11-11-11---------------|
A|--14\11-11-11-11-11-11-11-11-11-11---------------|
D|--14\11-11-11-11-11-11-11-11-11-11---------------|
[THATS FOURTEEN AND ELEVEN]

(Before Bridge Solo 
[ITS SOMETHING LIKE THIS BUT THEY USE SOME EFFECT at 1:45])
E|----------------|
B|----7-6---------|
G|--8-----8-------|
D|----------8-8---|
A|----------------|
D|----------------|
AFTER THE BEFORE BRIDE SOLO (at 2:13), 
THE BRIDGE IS EXACTLY LIKE THE "OTHER RIFF"
THEN IT GOES BACK TO THE PART LIKE AT 0:44
THEN IT JUST GOES BACK TO THE MAIN RIFF.
AT THE EXACT END ITS SOMETHING LIKE THE SOLO PART.
-----------------------------------------------------
THIS WAS ALL DONE BY EAR, SO SORRY IF ITS WRONG. 
THIS IS LIKE AN "EASY" VERSION OF THE SONG 
SINCE I KNOW GREELEY ESTATES VERSION 
WOULD BE MORE DIFFICULT. 



Tap to rate this tab
# A B C D E F G H I J K L M N O P Q R S T U V W X Y Z