Song name
# A B C D E F G H I J K L M N O P Q R S T U V W X Y Z

Greeley Estates - If She Only Knew tab

Band: Greeley Estates
Song: If She Only Knew
Album: Go West Young Man, Let The Evil Go East
Tuning: C

This is only alex's parts and thats basically what ill tab from any song by them
unless you want brandons ill figure them out for you. but other than enjoy.

Intro: (brandon i beleive. its fun to play though)

D|----------------------------------------------|
A|----------------------------------------------|
F|--10p0--7h8p7----------------------10-0-7-----|
C|---------------8--7h8h10p0--7h8p7-------------|
G|----------------------------------------------|
C|----------------------------------------------|


Intro: Alex

D|---------------------------------------------------------------|
A|---------------------------------------------------------------|
F|---------------------------------------------------------------|
C|-0~--3~--2~--1~--------------------0~--3~--2~--5~--3-----------|
G|-0~--3~--2~--1~--1111-1~--1111-1~--0~--3~--2~--5~--3-----------|
C|-0~--3~--2~--1~--1111-1~--1111-1~--0~--3~--2~--5~--3-----------|


Verse:
                    3X                        1.             2.
D|--------------------|--------------------------|--------------|
A|--------------------|--------------------------|--------------|
F|--------------------|--------------------------|--------------|
C|--------------------|--------------------------|--------------|
G|--------------------|-8--10--7-----------------|--8--10--7----|
C|-00000--12/-1-\-12b-|-8--10--7---00000----1/12b|--8--10--7----|


Chorus:
                            3x
D|--------------|-------------|--------------|
A|--------------|-------------|--------------|
F|--7---9----10-|-----------7-|-----------14-|
C|--x---x-----x-|-----------x-|------------x-| 2x
G|--5---7-----8-|-----------5-|-----------12-|
C|--------------|--00000-0----|--00000-0-----|

Verse
Chorus

Then...

D|------------------------------------------------------------|
A|------------------------------------------------------------|
F|-----------7-------------10---------------7------------14---|
C|-----------x--------------x---------------x-------------x---|
G|-----------5--------------8---------------5------------12---|
C|-000000-0------000000-0--------000000-0--------00000-0------|


Bridge:

D|-----------------------------------------------|
A|------------------------------------(6)--------|
F|-------------------------------------7~--------|
C|-------------------------------------x---------|
G|-------------------------------------5~--------|
C|-00000~--00000~--000000~--000000~--------------|


D|-------------------------------------------------------------|
A|-----------(6)-(6)-(6)--------------------(6)-(6)-(6)--------|
F|------------7---7---7----------------------7---7---7---------|
C|------------x---x---x----------------------x---x---x---------|
G|-000--000---5---5---5---000----------000---5---5---5---000---|
C|-000--000---------------000--000000--000---------------000---|


D|------------------------------------------------|
A|-----(6)-(6)-(6)--------------------------------|
F|------7---7---7---------------------------------| 3x
C|------x---x---x---------------------------------|
G|-000--5---5---5---77777777--8888888--3333333----|
C|-000--------------77777777--8888888--3333333----|

D|------------|
A|---(6)~-----|
F|----7-~-----|
C|----x-------|
G|----5-~-----|
C|----0-~-----|


D|----------------------|
A|----------------------|
F|----------------------|
C|----------------------|
G|----------------------|
C|-00--000--0-00000-----|

Back to Verse


D|------------|
A|---(6)~-----|
F|----7-~-----|
C|----x-------|
G|----5-~-----|
C|----0-~-----|


intro but strum each chord a little then let ring.
do that a few times and end on...


D|--------|
A|--------|
F|--------|
C|---0~---|
G|---0~---|
C|---0~---|



End.


Hope it worked for you.
:]


















Tap to rate this tab
# A B C D E F G H I J K L M N O P Q R S T U V W X Y Z