Guitaretab - guitar tabs
Song name
# A B C D E F G H I J K L M N O P Q R S T U V W X Y Z

Greeley Estates - Go West Young Man tab

----------------------------------------------------------------------------
GO WEST YOUNG MAN (intro) - Greeley Estates
----------------------------------------------------------------------------
Tabbed by: Shinsen88
Email: shinsen88@yahoo.com

Tuning: CGCFAD

This is just the intro to the song, but I'm currently working on 
the rest. Look for it fairly soon.
[ Tab from: http://www.guitaretab.com/g/greeley-estates/113194.html ]
GUITAR 1 (hits 11 on the 4th string between each note)
D|-------------------------------------------------|
A|--14----------------13----------------------13---|
F|--------13----12----------15----------12---------|
C|-----11----11----11----11----11-15-11----11------|
G|-------------------------------------------------|
C|-------------------------------------------------|

GUITAR 2 (comes in at 0:05 with ECHO/DELAY effect)
D|------------|
A|--14~--14~--|
F|------------|
C|------------|
G|------------|
C|------------|


| .  palm mute
|   tremolo pick
| ~  let note ring
| /  slide up
| \  slide down
| h  hammer-on
| p  pull-off
| ~  vibrato
| +  harmonic
| x  Mute note
=====================================================================

Related for Go West Young Man tab