Guitaretab - guitar tabs
Song name
# A B C D E F G H I J K L M N O P Q R S T U V W X Y Z

Greeley Estates - If Were Going Out Lets Go Out In Style tab

---------------------------------------------------------------------------
IF WEíRE GOING OUT, LETíS GO OUT IN STYLE - Greeley Estates
---------------------------------------------------------------------------
Tabbed by: Shinsen88
Email: shinsen88@yahoo.com

Tuning: CGCFAD


0:00-0:18
D|--------|
A|--------|
F|-7~--7~-|
C|-x~--x~-|
G|-5~--4~-| x3
C|--------|

0:19-0:29
(Fourth time donít play the last note)
D|------------------------------------------------|
A|------------------------------------------------|
F|----------14----------17------------------------|
C|-12-14-15----15-14-12----15-14-12-14-15-14-(12)-|
G|------------------------------------------------| x4
C|------------------------------------------------|

0:30-0:34
D|-----------------------------------------------------------------|
A|-----------------------------------------------------------------|
F|-----------------------------------------------------------------|
C|-5-5-5-5-5-5-5-5-5-5-5-5-5-5-5-5-4-4-4-4-4-4-4-4-7-7-7-7-7-7-7-7-|
G|-5-5-5-5-5-5-5-5-5-5-5-5-5-5-5-5-4-4-4-4-4-4-4-4-7-7-7-7-7-7-7-7-|
C|-5-5-5-5-5-5-5-5-5-5-5-5-5-5-5-5-4-4-4-4-4-4-4-4-7-7-7-7-7-7-7-7-|

0:35-0:56 (play whole thing twice)
D|---------------------------------------------|
A|---------------------------------------------|
F|------------------------------12-12-14-14-14-|
C|-------------0--------------0--x--x--x--x--x-|
G|-0-0-0-0-0-0-0--0-0-0-0-0-0-0-10-10-12-12-12-|
C|-0-0-0-0-0-0-0--0-0-0-0-0-0-0----------------|
   . . . . . . .    . . . . . .

D|---------------------------------------------|
A|---------------------------------------------|
F|------------------------------10-10-12-12-12-|
C|-------------0--------------0--x--x--x--x--x-|
G|-0-0-0-0-0-0-0--0-0-0-0-0-0-0--8--8-10-10-10-|
C|-0-0-0-0-0-0-0--0-0-0-0-0-0-0----------------|
   . . . . . . .    . . . . . .

D|---------------------------------------------|
A|---------------------------------------------|
F|------------------------------12-12-14-14-14-|
C|-------------0--------------0--x--x--x--x--x-|
G|-0-0-0-0-0-0-0--0-0-0-0-0-0-0-10-10-12-12-12-|
C|-0-0-0-0-0-0-0--0-0-0-0-0-0-0----------------|
   . . . . . . .    . . . . . .

D|---------------------------------|
A|---------------------------------|
F|-6-6-6-6-6-6-6-6-6-6-6-6-6-6-6-6-|
C|-x-x-x-x-x-x-x-x-x-x-x-x-x-x-x-x-|
G|-4-4-4-4-4-4-4-4-4-4-4-4-4-4-4-4-|
C|---------------------------------|

0:57-0:59
D|-------------------------------------------|
A|-------------------------------------------|
F|-6-6---6-6---6-6---6-6---------------------|
C|-x-x---x-x---x-x---x-x---------------------|
G|-4-4-0-4-4-0-4-4-0-4-4-0-0-0-0-0-0-0-0-0-0-|
C|-----0-----0-----0-----0-0-0-0-0-0-0-0-0-0-|
       .     .     .     . . . . . . . . . .

1:00-1:21 GUITAR 1 REPEAT RIFF FROM 0:19-0:29 x8

1:10-1:21 GUITAR 2 PLAYS
D|------------------|
A|------------------|
F|------------------|
C|-------0--------0-|
G|-0-0-0-0--0-0-0-0-| x4
C|-0-0-0-0--0-0-0-0-|
   . . .    . . .

1:22-1:29 REPEAT RIFF FROM 0:30-0:34

1:30-1:51 REPEAT RIFF FROM 0:35-0:56 x2

1:52-2:00 REPEAT RIFF FROM 0:57-0:59 x3

2:01-2:16
D|---------------------------------|
A|---------------------------------|
F|-6-6---6-6---6-6---6-6-----------|
C|-x-x---x-x---x-x---x-x-----------|
G|-4-4-0-4-4-0-4-4-0-4-4-0-0-0-0-0-| x5
C|-----0-----0-----0-----0-0-0-0-0-|
       .     .     .     . . . . .

2:17-2:47
D|--------------------------------------------------------|
A|--------------------------------------------------------|
F|-7-7-7--7-7-7--7-7-7--7-7-7--8-8-8--8-8-8--8-8-8--8-8-8-|
C|-x-x-x--x-x-x--x-x-x--x-x-x--x-x-x--x-x-x--x-x-x--x-x-x-|
G|-5-5-5--5-5-5--5-5-5--5-5-5--6-6-6--6-6-6--6-6-6--6-6-6-|
C|--------------------------------------------------------|
[ Tab from: http://www.guitaretab.com/g/greeley-estates/183639.html ]
D|-------------------------------------------------------------|
A|-------------------------------------------------------------|
F|-7-7-7--7-7-7--7-7-7--7-7-7--8-8-8-------8-8-8-----------8-8-|
C|-x-x-x--x-x-x--x-x-x--x-x-x--x-x-x-------x-x-x-----------x-x-|
G|-5-5-5--5-5-5--5-5-5--5-5-5--6-6-6-0-0-0-6-6-6-0-0-0-0-0-6-6-|
C|-----------------------------------0-0-0-------0-0-0-0-0-----|
                                     . . .       . . . . .

D|--------------------------------------------------------|
A|--------------------------------------------------------|
F|-7-7-7--7-7-7--7-7-7--7-7-7--8-8-8--8-8-8--8-8-8--8-8-8-|
C|-x-x-x--x-x-x--x-x-x--x-x-x--x-x-x--x-x-x--x-x-x--x-x-x-|
G|-5-5-5--5-5-5--5-5-5--5-5-5--6-6-6--6-6-6--6-6-6--6-6-6-|
C|--------------------------------------------------------|

D|-------------------------------------------------------------|
A|-------------------------------------------------------------|
F|-7-7-7--7-7-7--7-7-7--7-7-7--8-8-8-------8-8-8---------------|
C|-x-x-x--x-x-x--x-x-x--x-x-x--x-x-x-------x-x-x------------1~-|
G|-5-5-5--5-5-5--5-5-5--5-5-5--6-6-6-0-0-0-6-6-6-0-0-0-0-0--1~-|
C|-----------------------------------0-0-0-------0-0-0-0-0--1~-|
                                     . . .       . . . . .

2:48-3:16
D|--------------------------------------------|
A|--------------------------------------------|
F|--------------------------------------------|
C|-------------0--------------0-0-0-0-0-0-0-0-|
G|-0-0-0-0-0-0-0--0-0-0-0-0-0-0-0-0-0-1-1-1-1-| x2
C|-0-0-0-0-0-0-0--0-0-0-0-0-0-0-0-0-0-0-0-0-0-|
   . . . . . .    . . . . . .         . . . .

D|-------------------------------------------------|
A|-------------------------------------------------|
F|----------------------------------10-10-12-12-12-|
C|-------------0--------------0-0-0--x--x--x---x-x-|
G|-0-0-0-0-0-0-0--0-0-0-0-0-0-0-0-0--8--8-10-10-10-|
C|-0-0-0-0-0-0-0--0-0-0-0-0-0-0-0-0----------------|
   . . . . . .    . . . . . .

D|---------------------------------|
A|---------------------------------|
F|-6-6-6-6-6-6-6-6-6-6-6-6-6-6-6-6-|
C|-x-x-x-x-x-x-x-x-x-x-x-x-x-x-x-x-|
G|-4-4-4-4-4-4-4-4-4-4-4-4-4-4-4-4-|
C|---------------------------------|

D|-------------------------------------------------|
A|-------------------------------------------------|
F|----------------------------------12-12-14-14-14-|
C|-------------0--------------0-0-0--x--x--x--x--x-|
G|-0-0-0-0-0-0-0--0-0-0-0-0-0-0-0-0-10-10-12-12-12-|
C|-0-0-0-0-0-0-0--0-0-0-0-0-0-0-0-0----------------|
   . . . . . . .  . . . . . .

D|-------------------------------------------------|
A|-------------------------------------------------|
F|----------------------------------10-10-12-12-12-|
C|-------------0--------------0-0-0--x--x--x--x--x-|
G|-0-0-0-0-0-0-0--0-0-0-0-0-0-0-0-0--8--8-10-10-10-|
C|-0-0-0-0-0-0-0--0-0-0-0-0-0-0-0-0----------------|
   . . . . . . .  . . . . . .

D|-------------------------------------------------|
A|-------------------------------------------------|
F|----------------------------------12-12-14-14-14-|
C|-------------0--------------0-0-0--x--x--x--x--x-|
G|-0-0-0-0-0-0-0--0-0-0-0-0-0-0-0-0-10-10-12-12-12-|
C|-0-0-0-0-0-0-0--0-0-0-0-0-0-0-0-0----------------|
   . . . . . . .  . . . . . .

D|---------------------------------|
A|---------------------------------|
F|-6-6-6-6-6-6-6-6-6-6-6-6-6-6-6-6-|
C|-x-x-x-x-x-x-x-x-x-x-x-x-x-x-x-x-|
G|-4-4-4-4-4-4-4-4-4-4-4-4-4-4-4-4-|
C|---------------------------------|

3:17-END
D|-------------------------------------|
A|-------------------------------------|
F|-------------------------------------|
C|-------------0--------------0-0-0-0~-|
G|-0-0-0-0-0-0-0--0-0-0-0-0-0-0-0-0-0~-|
C|-0-0-0-0-0-0-0--0-0-0-0-0-0-0-0-0-0~-|
   . . . . . .    . . . . . . . . .

*PIANO OUTRO*

| .  palm mute
| ď  tremolo pick
| *  pinch harmonic
| ~  let note ring
| /  slide up
| \  slide down
| h  hammer-on
| p  pull-off
| v  vibrato
| +  natural harmonic
| x  mute note
=============================================================

Related for If Were Going Out Lets Go Out In Style tab