Guitaretab - guitar tabs
Song name
# A B C D E F G H I J K L M N O P Q R S T U V W X Y Z

Greeley Estates - In The Ashes tab

---------------------------------------------------------------------------
IN THE ASHES - Greeley Estates
---------------------------------------------------------------------------
Tabbed by: Shinsen88
Email: shinsen88@yahoo.com

Tuning: CGCFAD

This is completely by ear so there are probably a few parts off.
Nevertheless, I think it's probably pretty close. This is only the 
lead guitar part, as the rhythm guitar is almost the same with a few 
changes and the chords should be easy to figure out.

INTRO 0:00-0:10
D|----0--0--0-----0--0--0-------------|
A|---13-13-13----13-13-13-------------|
F|------------------------------------|
C|-0----------------------------0-----|
G|-0-----------0----------0-0-0-0-0-0-| x3
C|-0-----------0----------0-0-0-0-0-0-|
               .          . . .   . .

INTRO PART 2/CHORUS (strum) 0:11-0:30
D|-------------------------------------------------------------|
A|-------------------------------------------------------------|
F|-7--12--10--13--14--12--10--13--7--12--10--13--14--12--10--6-|
C|-x---x---x---x---x---x---x---x--x---x---x---x---x---x---x--x-|
G|-5--10---8--11--12--10---8--11--5--10---8--11--12--10---8--4-|
C|-------------------------------------------------------------|

VERSE (repeat whole thing x2) 0:31-0:47
D|---5-------------------------|
A|---6-------------------------|
F|-----------------------5-----|
C|-0-----------0-----------3---|
G|-0---0-0-0-0-0-0-0-0-------5-| x3
C|-0---0-0-0-0-0-0-0-0---------|
       . . . .   . . .

D|---------|
A|---------|
F|-----5---|
C|---3---3-|
G|-5-------|
C|---------|

0:48-1:08 REPEAT CHORUS

1:09-1:24 REPEAT VERSE

1:25-1:45 REPEAT CHORUS

1:45-1:51 (strum)
D|---|
A|---|
F|-6-|
C|-x-|
G|-4-|
C|---|


BREAKDOWN PART A 1:52-2:08
D|---------------------|
A|---------------------|
F|---14b---------------|
C|-0-15b---------------|
G|-0-----0-0-0-0-0-0-0-| x3
C|-0-----0-0-0-0-0-0-0-|
         . . . . . . .

D|---------------------------|
A|---------------------------|
F|---14b---------------------|
C|-0-15b-------0-------------|
G|-0-----0-0-0-0--0-0-0--0-0-| 
C|-0-----0-0-0-0--0-0-0--0-0-|
         . . .    . . .  . .
[ Tab from: http://www.guitaretab.com/g/greeley-estates/189740.html ]
INTERLUDE PART A 2:09-2:25
D|---------------------------|
A|------12-------------------|
F|-9-12----12-11b-12---------|
C|-x---------------x-(strum)-|
G|-7--------------10---------| 
C|---------------------------|

D|-------------------------------------|
A|------12-----------------------------|
F|-9-12----12-11b-12---------11--------|
C|-x---------------x-(strum)--x-(strum)|
G|-7--------------10----------9--------| 
C|-------------------------------------|

INTERLUDE PART B (2:26-305)
D|------------------------|
A|-----8----------8-------|
F|-7/9---9-11b-11---11----|
C|---------------------12-|
G|------------------------| x4
C|------------------------|

D|-------------------|
A|-------12-10-------|
F|-12-14-------12-11-|
C|-------------------|
G|-------------------| 
C|-------------------|

D|------------------------|
A|-----8----------8-------|
F|-7/9---9-11b-11---11----|
C|---------------------12-|
G|------------------------| x4
C|------------------------|




D|----------------12-10-------------------------------|
A|----------12-13-------13-12-15-13-12-10-13-12-------|
F|-12-13-14-------------------------------------14-12-|
C|----------------------------------------------------|
G|----------------------------------------------------|
C|----------------------------------------------------|

D|----------------------------------------------------------|
A|----------12-13-15-13-12-10-13-12-------------------------|
F|-12-13-14-------------------------14-12-------------------|
C|----------------------------------------16-14-------------|
G|----------------------------------------------17-16-12/14-| 
C|----------------------------------------------------------|

END (3:06-END)
D|--------------------------------|
A|--------------------------------|
F|--------------------------------|
C|-2------------------------------|
G|-2-2-2-2-2-2--2-2-2-2-2-2-2-2-2-| x2
C|-2-2-2-2-2-2--2-2-2-2-2-2-2-2-2-|
     . . . . .  . . . . . . . . .


| .  palm mute
|   tremolo pick
| *  pinch harmonic
| ~  let note ring
| /  slide up
| \  slide down
| h  hammer-on
| p  pull-off
| v  vibrato
| +  natural harmonic
| x  mute note
=============================================================
Related for In The Ashes tab