Song name
# A B C D E F G H I J K L M N O P Q R S T U V W X Y Z

Greeley Estates - Yall With The Vampire Squad tab

Intro

e------------------------------------------------------|
b------------------------------------------------------|
g---4-2---------4-2-4-5-4----4-2-----------------------|
d-22-5-5-4-0--22-5---------22-5-5-4-0--0-0000-0000-----|
a-22----------22-----------22----------0-0000-0000-----|
d-22----------22-----------22----------0-0000-0000-----|
   P.M.                                x xxxx xxxx

Then


e----------------------------------------------------------|
b----------------------------------------------------------|
g-------4---4----4----4-----2---2-2-5-4-2-0----------------|
d----22---2---22---22----00---0----------------------------|
a----22---2---22---22----00---0----------------------------|
d----22---2---22---22----00---0----------------------------|
pm   xx   x   xx   xx    xx   x

e----------------------------------------------------------|
b----------------------------------------------------------|
g-------4---4----4----4-----2---2--444-444-----------------|
d----22---2---22---22----00---0----xxx-xxx-----------------|
a----22---2---22---22----00---0----222-222-----------------|
d----22---2---22---22----00---0----------------------------|
pm   xx   x   xx   xx    xx   x

then Again (:

Chorus
e------------------------------------------------------------------|
b------------------------------------------------------------------|
g--555-222-444-777----555-222-------555-222-444-777-555/7/5/444----|
d--xxx-xxx-xxx-xxx----xxx-xxx-222---xxx-xxx-xxx-xxx-xxx/x/x/xxx----|
a--333-000-222-555----333-000-222---333-000-222-555-333/5/3/222----|
d-----------------------------222----------------------------------|


TAfter tht its the same thing

then its the bridge

Bridge
e--------------------|
b--1----6--3---------|
g--2----7--4---------|
d--x----x--x---------|
a--0----5--2---------|
d--------------------|


The Tht kind of Solo

e------------------------------------------------------------------|
b------------------------------------------------------------------|
g------------------------------------------------------------------|
d----10-9-5-7-4----10-9-5-7-4-0----5-4-2-4-------2-5---------------|
a--7-------------7---------------3---------3---3-----0-2-3-2-------|
d------------------------------------------------------------------|

then the chorus and then the intro and the the end..!
END

e-----------|
b-4---------|
g-4---------|
d-0---------|
a-0---------|
d-0---------|

SAludos para mi banda Red Dress  (:
Bryan R x)
Tap to rate this tab
# A B C D E F G H I J K L M N O P Q R S T U V W X Y Z