Song name
# A B C D E F G H I J K L M N O P Q R S T U V W X Y Z

Greeley Estates - Loyal Com tab

EPIC SONG!! The third track off of "No Rain, No Rainbow". Pretty easy compared to the 
of the songs. ENJOY!!

Rate and comment!!
99% accurate =] let me know if something is messed up!!

Greeley Estates
"Loyal.com"
No Rain, No Rainbow

INTRO---
[this is some weird effect but you can play these notes during this time]:
(0:00-0:09)
|-------------------------------------|
|-------------------------------------|
|-------------------------------------|
|-------------------------------------|
|-1-1-1-1-1-1-1-1-1-1-1-----3---3---3-|
|-2-2-2-2-2-2-2-2-2-2-2---------------|
  . . . . . . . . . . .

VERSE---
Guitar 1:
(0:10)
|------------------------------|
|------------------------------|
|------------------------------|
|------------------------------|
|------------------------------|
|-/10-0--0--0--0-3~-0-0-2~-0-0-|
                    . .    . .

(0:12)
|--------------------------------|
|--------------------------------|
|--------------------------------|
|--------------------------------|
|--------------------------------|
|-/10-0--0--0--0-7-8-7-0-5-0-3-0-|

(0:14)
|------------------------------|
|------------------------------|
|------------------------------|
|------------------------------|
|------------------------------|
|-/10-0--0--0--0-3~-0-0-2~-0-0-|
                    . .    . .

(0:17)
|--------------------------------|
|--------------------------------|
|--------------------------------|
|----------------7tp-8tp-5tp-7tp-| <-- tp = tremolo pick
|--------------------------------|
|-/10-0--0--0--0-----------------|

(0:19)
|------------------------------|
|------------------------------|
|------------------------------|
|------------------------------|
|------------------------------|
|-/10-0--0--0--0-3~-0-0-2~-0-0-|
                    . .    . .

(0:21)
|--------------------------------|
|--------------------------------|
|--------------------------------|
|--------------------------------|
|--------------------------------|
|-/10-0--0--0--0-7-8-7-0-5-0-3-0-|

(0:24)
|------------------------------|
|------------------------------|
|------------------------------|
|------------------------------|
|------------------------------|
|-/10-0--0--0--0-3~-0-0-2~-0-0-|
                    . .    . .

(0:26)
|------------------------------------------------|
|------------------------------------------------|
|------------------------------------------------|
|----------------7tp-8tp-5tp-7tp-3tp-5tp-2tp-3tp-|
|------------------------------------------------|
|-/10-0--0--0--0---------------------------------|

Guitar 2:
(0:10)
|------------------------------|
|------------------------------|
|------------------------------|
|------------------------------|
|------------------------------|
|-/10-0--0--0--0-7~-0-0-5~-0-0-|
                    . .    . .

(0:12)
|--------------------------------|
|--------------------------------|
|--------------------------------|
|--------------------------------|
|----------------5-7-5-3-5-1-3-0-| <-- this is the only part
|-/10-0--0--0--0-----------------|     I'm not sure of... it's
                                       very hard to hear.
(0:14)
|------------------------------|
|------------------------------|
|------------------------------|
|------------------------------|
|------------------------------|
|-/10-0--0--0--0-7~-0-0-5~-0-0-|
                    . .    . .

(0:17)
|--------------------------------|
|--------------------------------|
|--------------------------------|
|--------------------------------|
|----------------5tp-6tp-3tp-5tp-|
|-/10-0--0--0--0-----------------|

(0:19)
|------------------------------|
|------------------------------|
|------------------------------|
|------------------------------|
|------------------------------|
|-/10-0--0--0--0-7~-0-0-5~-0-0-|
                    . .    . .

(0:21)
|--------------------------------|
|--------------------------------|
|--------------------------------|
|--------------------------------|
|----------------5-7-5-3-5-1-3-0-|
|-/10-0--0--0--0-----------------|

(0:24)
|------------------------------|
|------------------------------|
|------------------------------|
|------------------------------|
|------------------------------|
|-/10-0--0--0--0-7~-0-0-5~-0-0-|
                    . .    . .

(0:26)
|------------------------------------------------|
|------------------------------------------------|
|------------------------------------------------|
|------------------------------------------------|
|----------------5tp-6tp-3tp-5tp-1tp-3tp-0tp-1tp-|
|-/10-0--0--0--0---------------------------------|


CHORUS---
Guitar 1:
(0:29)
|---------------------------------------------------------------------------------|
|---------------------------------------------------------------------------------|
|---------------------------------------------------------------------------------|
|---------------------------------------------------------------------------------|
|---------------------------------------------------------------------------------|
|-0-0-0-0-0-0-12-12-12-12-12-12-12-12-12-12-11-11-11-11-11-11-7-7-7-7-7-7-7-7-7-7-|

(0:34)
|-------------------------------------------------------------------|
|-------------------------------------------------------------------|
|-------------------------------------------------------------------|
|-------------------------------------------------------------------|
|-------------------------------------------------------------------|
|-7-8-8-8-8-8-8-8-8-8-8-8-8-8-8-8-8-3-3-3-3-3-3-2-2-2-2-2-2-2-2-2-2-|

Guitar 2:
(0:29)
|-----------------------------------------------------------------|
|-----------------------------------------------------------------|
|-----------------------------------------------------------------|
|-----------------------------------------------------------------|
|-------------8-8-8-8-8-8-8-8-8-8-7-7-7-7-7-7-4-4-4-4-4-4-4-4-4-4-|
|-0-0-0-0-0-0-----------------------------------------------------|

(0:34)
|-------------------------------------------------------------------|
|-------------------------------------------------------------------|
|-------------------------------------------------------------------|
|-------------------------------------------------------------------|
|-4-5-5-5-5-5-5-5-5-5-5-5-5-5-5-5-5---------------------------------|
|-----------------------------------3-3-3-3-3-3-2-2-2-2-2-2-2-2-2-2-|


VERSE 2---
(0:39-0:59)
[repeat VERSE 1]


CHORUS 2---
Guitar 1:
(0:59)
|-------------------------------------------|
|-------------------------------------------|
|-------------------------------------------|
|-------------------------------------------|
|-------------------------------------------|
|-0-0-0-12-12-12-12-12-11-11-11-7-7-7-7-7-7-|

(1:04)
|-----------------------------------|
|-----------------------------------|
|-----------------------------------|
|-----------------------------------|
|-----------------------------------|
|-7h8-8-8-8-8-8-8-8-3-3-3-2-2-2-2-2-|

(1:09)
|---------------------------------------------------------------------------------|
|---------------------------------------------------------------------------------|
|---------------------------------------------------------------------------------|
|---------------------------------------------------------------------------------|
|-------------12-12-12-12-12-12-12-12-12-12-11-11-11-11-11-11-7-7-7-7-7-7-7-7-7-7-|
|-0-0-0-0-0-0---------------------------------------------------------------------|

(1:14)
|-------------------------------------------------------------------|
|-------------------------------------------------------------------|
|-------------------------------------------------------------------|
|-------------------------------------------------------------------|
|-------------------------------------------------------------------|
|-7-8-8-8-8-8-8-8-8-8-8-8-8-8-8-8-8-3-3-3-3-3-3-2-2-2-2-2-2-2-2-2-2-|

Guitar 2:
(0:59)
|---------------------------------|
|---------------------------------|
|---------------------------------|
|---------------------------------|
|-------8-8-8-8-8-7-7-7-4-4-4-4-4-|
|-0-0-0---------------------------|

(1:04)
|-----------------------------------|
|-----------------------------------|
|-----------------------------------|
|-----------------------------------|
|-4h5-5-5-5-5-5-5-5-----------------|
|-------------------3-3-3-2-2-2-2-2-|

(1:09)
|-----------------------------------------------------------------|
|-----------------------------------------------------------------|
|-----------------------------------------------------------------|
|-----------------------------------------------------------------|
|-------------8-8-8-8-8-8-8-8-8-8-7-7-7-7-7-7-4-4-4-4-4-4-4-4-4-4-|
|-0-0-0-0-0-0-----------------------------------------------------|

(1:04)
|-------------------------------------------------------------------|
|-------------------------------------------------------------------|
|-------------------------------------------------------------------|
|-------------------------------------------------------------------|
|-4-5-5-5-5-5-5-5-5-5-5-5-5-5-5-5-5---------------------------------|
|-----------------------------------3-3-3-3-3-3-2-2-2-2-2-2-2-2-2-2-|


VERSE 2 (or I guess you could call it an epic BRIDGE)---
Guitar 1:
(1:19)
|----------------------------------------------------------|
|----------------------------------------------------------|
|----------------------------------------------------------|
|----------------------------------------------------------|
|----------------------------------------------------------|
|-/10-0--0--0--0-5-0--0--0--0-8-0--0--0--0-7-8-7-0-5-0-3-0-|

(1:24)
|----------------------------------------------------------|
|----------------------------------------------------------|
|----------------------------------------------------------|
|----------------------------------------------------------|
|----------------------------------------------------------|
|-/10-0--0--0--0-5-0--0--0--0-8-0--0--0--0-0000-3~-0000-2~-|
                                           ....    ....

(1:28)
|----------------------------------------------------------|
|----------------------------------------------------------|
|----------------------------------------------------------|
|----------------------------------------------------------|
|----------------------------------------------------------|
|-/10-0--0--0--0-5-0--0--0--0-8-0--0--0--0-7-8-7-0-5-0-3-0-|

(1:33)
|----------------------------------------------------------|
|----------------------------------------------------------|
|----------------------------------------------------------|
|----------------------------------------------------------|
|----------------------------------------------------------|
|-/10-0--0--0--0-5-0--0--0--0-8-0--0--0--0-0000-3~-0000-2~-|
                                           ....    ....

(1:38)
|----------------------------------------------------------|
|----------------------------------------------------------|
|----------------------------------------------------------|
|------------------------------------------7tp-8tp-5tp-7tp-|
|----------------------------------------------------------|
|-/10-0--0--0--0-5-0--0--0--0-8-0--0--0--0-----------------|

(1:43)
|--------------------------------------------------------------------------|
|--------------------------------------------------------------------------|
|--------------------------------------------------------------------------|
|--------------------------------------------------------------------------|
|--------------------------------------------------------------------------|
|-/10-0--0--0--0-5-0--0--0--0-8-0--0--0--0-0000-3~-0000-2~-0000-3~-0000-2~-|
                                           ....    ....    ....    ....

Guitar 2:
(1:19)
|----------------------------------------------------------|
|----------------------------------------------------------|
|----------------------------------------------------------|
|----------------------------------------------------------|
|------------------------------------------5-7-5-3-5-1-3-0-|
|-/10-0--0--0--0-5-0--0--0--0-8-0--0--0--0-----------------|

(1:24)
|----------------------------------------------------------|
|----------------------------------------------------------|
|----------------------------------------------------------|
|----------------------------------------------------------|
|----------------------------------------------------------|
|-/10-0--0--0--0-5-0--0--0--0-8-0--0--0--0-0000-7~-0000-5~-|
                                           ....    ....

(1:28)
|----------------------------------------------------------|
|----------------------------------------------------------|
|----------------------------------------------------------|
|----------------------------------------------------------|
|------------------------------------------5-7-5-3-5-1-3-0-|
|-/10-0--0--0--0-5-0--0--0--0-8-0--0--0--0-----------------|

(1:33)
|----------------------------------------------------------|
|----------------------------------------------------------|
|----------------------------------------------------------|
|----------------------------------------------------------|
|----------------------------------------------------------|
|-/10-0--0--0--0-5-0--0--0--0-8-0--0--0--0-0000-7~-0000-5~-|
                                           ....    ....

(1:38)
|----------------------------------------------------------|
|----------------------------------------------------------|
|----------------------------------------------------------|
|----------------------------------------------------------|
|------------------------------------------5tp-6tp-3tp-5tp-|
|-/10-0--0--0--0-5-0--0--0--0-8-0--0--0--0-----------------|

(1:43)
|--------------------------------------------------------------------------|
|--------------------------------------------------------------------------|
|--------------------------------------------------------------------------|
|--------------------------------------------------------------------------|
|--------------------------------------------------------------------------|
|-/10-0--0--0--0-5-0--0--0--0-8-0--0--0--0-0000-7~-0000-5~-0000-7~-0000-5~-|
                                           ....    ....    ....    ....

BREAKDOWN part 1---
Both guitars:
(1:49)
|---------------------------------------------------|
|---------------------------------------------------|
|---------------------------------------------------|
|---------------------------------------------------|
|-00000--0--0--0-0-0-0--00000--0--0--0-0-0-0--0-0-0-|
|-00000--0--0--0-0-0-0--00000--0--0--0-0-0-0--0-0-0-|
  .....  .  .  . . . .  .....  .  .  . . . .  . . .

(1:53)
|----------------------------------------------|
|----------------------------------------------|
|----------------------------------------------|
|----------------------------------------------|
|-00000--0--0--0-0-0-0--00000--0--0--0-0-0-0~~-|
|-00000--0--0--0-0-0-0--00000--0--0--0-0-0-0~~-|
  .....  .  .  . . . .  .....  .  .  . . . .

BREAKDOWN PART 2---
Both guitars:
(2:01)
[slow it down...]
|------------------------------------------------------------|
|------------------------------------------------------------|
|------------------------------------------------------------|
|------------------------------------------------------------|
|-00000~--0~--0~--0-0-0-0~--00000~--0~--0~--0-0-0-0~--0-0-0~-|
|-11111~--1~--1~--1-1-1-1~--11111~--1~--1~--1-1-1-1~--1-1-1~-|
  .....   .   .   . . . .   .....   .   .   . . . .   . . .

(2:09)
|------------------------------------------------------------|
|------------------------------------------------------------|
|------------------------------------------------------------|
|------------------------------------------------------------|
|-00000~--0~--0~--0-0-0-0~--00000~--0~--0~--0-0-0-0~--0-0-0~-|
|-11111~--1~--1~--1-1-1-1~--11111~--1~--1~--1-1-1-1~--1-1-1~-|
  .....   .   .   . . . .   .....   .   .   . . . .   . . .

(2:16)
|-------|
|-------|
|-------|
|-0~~~~-|
|-0~~~~-|
|-0~~~~-|


REPEAT CHORUS (not chorus 2) 2x---
(2:18-2:37)


OUTRO---
Guitar 1:
(2:37)
|----------------------------------------------------------|
|----------------------------------------------------------|
|----------------------------------------------------------|
|----------------------------------------------------------|
|----------------------------------------------------------|
|-/10-0--0--0--0-5-0--0--0--0-8-0--0--0--0-7-8-7-0-5-0-3-0-|

(2:42)
|----------------------------------------------------------|
|----------------------------------------------------------|
|----------------------------------------------------------|
|----------------------------------------------------------|
|----------------------------------------------------------|
|-/10-0--0--0--0-5-0--0--0--0-8-0--0--0--0-0000-3~-0000-2~-|
                                           ....    ....

(2:47)
|----------------------------------------------------------|
|----------------------------------------------------------|
|----------------------------------------------------------|
|------------------------------------------7tp-8tp-5tp-7tp-|
|----------------------------------------------------------|
|-/10-0--0--0--0-5-0--0--0--0-8-0--0--0--0-----------------|

(2:52)
|----------------------------------------------------------|
|----------------------------------------------------------|
|----------------------------------------------------------|
|----------------------------------------------------------|
|----------------------------------------------------------|
|-/10-0--0--0--0-5-0--0--0--0-8-0--0--0--0-0000-3~-0000-2~-|
                                           ....    ....

Guitar 2:
(2:37)
|----------------------------------------------------------|
|----------------------------------------------------------|
|----------------------------------------------------------|
|----------------------------------------------------------|
|------------------------------------------5-7-5-3-5-1-3-0-|
|-/10-0--0--0--0-5-0--0--0--0-8-0--0--0--0-----------------|

(2:42)
|----------------------------------------------------------|
|----------------------------------------------------------|
|----------------------------------------------------------|
|----------------------------------------------------------|
|----------------------------------------------------------|
|-/10-0--0--0--0-5-0--0--0--0-8-0--0--0--0-0000-7~-0000-5~-|
                                           ....    ....

(2:47)
|----------------------------------------------------------|
|----------------------------------------------------------|
|----------------------------------------------------------|
|----------------------------------------------------------|
|------------------------------------------5tp-6tp-3tp-5tp-|
|-/10-0--0--0--0-5-0--0--0--0-8-0--0--0--0-----------------|

(2:52)
|----------------------------------------------------------|
|----------------------------------------------------------|
|----------------------------------------------------------|
|----------------------------------------------------------|
|----------------------------------------------------------|
|-/10-0--0--0--0-5-0--0--0--0-8-0--0--0--0-0000-7~-0000-5~-|
                                           ....    ....


And for the little electronic sitar-sounding thing at the end, you can play this:

(2:57-3:05)
|-------------------------|
|-------------------------|
|-------------------------|
|-7~-5-7-7---7~-5-7-5-----|
|----------8----------7~~-|
|-------------------------|
Tap to rate this tab
# A B C D E F G H I J K L M N O P Q R S T U V W X Y Z