Song name
# A B C D E F G H I J K L M N O P Q R S T U V W X Y Z

Greeley Estates - Blue Morning tab

I'm just getting started on tabbing the WHOLE "Go West Young Man, Let the Evil Go 
East" album. It's gonna be a lot of work, so bear with me.

Greeley Estates
"Blue Morning"
Go West Young Man, Let the Evil Go East


VERSE 1---
Guitar 1:
(0:03)
"I'm not a monster..."
|---------------------------------------------|
|------------11-11-11-11-11-11-11-11-11-11-11-|
|------------14-14-14-14-14-14-14-14-14-14-14-|
|---------------------------------------------|
|-0-0-0-0-0-----------------------------------|
|-0-0-0-0-0-----------------------------------|
  . . . . .

(0:05)
"I'm just a sick man..."
|-----------------------------------------|
|-------------11-11-11-----11-11-11-11-11-|
|-------------12-12-12-----12-12-12-12-12-|
|-----------------------------------------|
|-0-0-0-0-0----------0-0-0----------------|
|-0-0-0-0-0----------0-0-0----------------|
  . . . . .          . . .

(0:08)
"Who would give anything..."
|-----------------------------------------|
|-------11-11-11-----11-11-11-11-11-------|
|-------14-14-14-----14-14-14-14-14-------|
|-----------------------------------------|
|-0-0-0-0-0----------0-0-0----------------|
|-0-0-0-0-0----------0-0-0----------------|
  . . . . .          . . .

(0:10)
"To get his soul back..."
|---------------------------------|
|---------------------------------|
|---------------------------------|
|-------8h7---5h7-5p3---------8h5-|
|-7h8p7-----7---------5p0-5h7-----|
|---------------------------------|

(0:13)
"I'm not a monster..."
|---------------------------------------------|
|------------11-11-11-11-11-11-11-11-11-11-11-|
|------------14-14-14-14-14-14-14-14-14-14-14-|
|---------------------------------------------|
|-0-0-0-0-0-----------------------------------|
|-0-0-0-0-0-----------------------------------|
  . . . . .

(0:16)
"I'm just a sick man..."
|-----------------------------------------|
|-------------11-11-11-----11-11-11-11-11-|
|-------------12-12-12-----12-12-12-12-12-|
|-----------------------------------------|
|-0-0-0-0-0----------0-0-0----------------|
|-0-0-0-0-0----------0-0-0----------------|
  . . . . .          . . .

(0:19)
"Who would do anything..."
|-----------------------------------------|
|-------11-11-11-----11-11-11-11-11-------|
|-------14-14-14-----14-14-14-14-14-------|
|-----------------------------------------|
|-0-0-0-0-0----------0-0-0----------------|
|-0-0-0-0-0----------0-0-0----------------|
  . . . . .          . . .

(0:21)
"To get his soul back..."
|---------------------------------|
|---------------------------------|
|---------------------------------|
|-------8h7---5h7-5p3---------8h5-|
|-7h8p7-----7---------5p0-5h7-----|
|---------------------------------|

Guitar 2:
(0:03)
|---------------------------------------------|
|------------11-11-11-11-11-11-11-11-11-11-11-|
|------------14-14-14-14-14-14-14-14-14-14-14-|
|---------------------------------------------|
|-0-0-0-0-0-----------------------------------|
|-0-0-0-0-0-----------------------------------|
  . . . . .

(0:05)
|-----------------------------------------|
|-------------11-11-11-----11-11-11-11-11-|
|-------------12-12-12-----12-12-12-12-12-|
|-----------------------------------------|
|-0-0-0-0-0----------0-0-0----------------|
|-0-0-0-0-0----------0-0-0----------------|
  . . . . .          . . .

(0:08)
|-----------------------------------------|
|-------11-11-11-----11-11-11-11-11-------|
|-------14-14-14-----14-14-14-14-14-------|
|-----------------------------------------|
|-0-0-0-0-0----------0-0-0----------------|
|-0-0-0-0-0----------0-0-0----------------|
  . . . . .          . . .

(0:10)
|---------------------------------|
|---------------------------------|
|---------------------------------|
|-7p0-7h8-7p0-5p0-7h8-7p0-5h7-5---|
|-------------------------------7-|
|---------------------------------|

(0:13)
|---------------------------------------------|
|------------11-11-11-11-11-11-11-11-11-11-11-|
|------------14-14-14-14-14-14-14-14-14-14-14-|
|---------------------------------------------|
|-0-0-0-0-0-----------------------------------|
|-0-0-0-0-0-----------------------------------|
  . . . . .

(0:16)
|-----------------------------------------|
|-------------11-11-11-----11-11-11-11-11-|
|-------------12-12-12-----12-12-12-12-12-|
|-----------------------------------------|
|-0-0-0-0-0----------0-0-0----------------|
|-0-0-0-0-0----------0-0-0----------------|
  . . . . .          . . .

(0:19)
|-----------------------------------------|
|-------11-11-11-----11-11-11-11-11-------|
|-------14-14-14-----14-14-14-14-14-------|
|-----------------------------------------|
|-0-0-0-0-0----------0-0-0----------------|
|-0-0-0-0-0----------0-0-0----------------|
  . . . . .          . . .

(0:21)
|---------------------------------|
|---------------------------------|
|---------------------------------|
|-7p0-7h8-7p0-5p0-7h8-7p0-5h7-5---|
|-------------------------------7-|
|---------------------------------|


LITTLE SOLO THINGY---
Guitar 1:
(0:24)
"Yeahhh..."
|---------------------------------|
|---------------------------------|
|---------------------------------|
|-------8h7---5h7-5p3---------8h5-|
|-7h8p7-----7---------5p0-5h7-----|
|---------------------------------|

Guitar 2:
(0:24)
|---------------------------------|
|---------------------------------|
|---------------------------------|
|-7p0-7h8-7p0-5p0-7h8-7p0-5h7-5---|
|-------------------------------7-|
|---------------------------------|


VERSE 2---
Guitar 1:
(0:27)
"You should probably just shoot me in the head now..."
|-------------------------------------|
|-------------------------------------|
|----------10-10-10-7-7-7-9-9-6-6-6-6-|
|-0---------x--x--x-x-x-x-x-x-x-x-x-x-|
|-0--0000---8--8--8-5-5-5-7-7-4-4-4-4-|
|-0--0000-----------------------------|
     ....

(0:29)
"Otherwise, I'm gonna kill you..."
|-----------------------------|
|-----------------------------|
|------6-6-6~-------6-6-6-6-6-|
|------x-x-x--------x-x-x-x-x-|
|-0000-4-4-4~-0-0-0-4-4-4-4-4-|
|-0000--------0-0-0-----------|
  ....        . . .

(0:32)
"I'm sick, really sick..."
|-------------------------------------|
|-------------------------------------|
|----------10-10-10-7-7-7-9-9-6-6-6-6-|
|-0---------x--x--x-x-x-x-x-x-x-x-x-x-|
|-0--0000---8--8--8-5-5-5-7-7-4-4-4-4-|
|-0--0000-----------------------------|
     ....

(0:35)
"I'm one of them now..."
|---------------------------------|
|---------------------------------|
|-7-7-7-7-7-7-7-7-9-9-9-6-6-6-6-6-|
|-x-x-x-x-x-x-x-x-x-x-x-x-x-x-x-x-|
|-5-5-5-5-5-5-5-5-7-7-7-4-4-4-4-4-|
|---------------------------------|

(0:37)
"Quarantine me..."
|-----------------------------|
|-----------------------------|
|-----------------------------|
|-0---------------------------|
|-0--0000-8-8p0-8p4p0-8p4p0-4-| <-- the only part I'm not sure of...
|-0--0000---------------------|
     ....

(0:40)
"I'm infected..."
|-----------------------------|
|-----------------------------|
|------6-6-6~-------6-6-6-6-6-|
|------x-x-x--------x-x-x-x-x-|
|-0000-4-4-4~-0-0-0-4-4-4-4-4-|
|-0000--------0-0-0-----------|
  ....        . . .

(0:43)
"Quarantine me..."
|-----------------------------|
|-----------------------------|
|-----------------------------|
|-0---------------------------|
|-0--0000-8-8p0-8p4p0-8p4p0-4-|
|-0--0000---------------------|
     ....

(0:45)
"Don't you love what I've become?..."
|---------------------------------|
|---------------------------------|
|-7-7-7-7-7-7-7-7-9-9-9-6-6-6-6-6-|
|-x-x-x-x-x-x-x-x-x-x-x-x-x-x-x-x-|
|-5-5-5-5-5-5-5-5-7-7-7-4-4-4-4-4-|
|---------------------------------|

Guitar 2:
(0:27)
|------------------------------------------|
|------------------------------------------|
|----------14-14-14-10-10-10-12-12-9-9-9-9-|
|-0---------x--x--x--x--x--x--x--x-x-x-x-x-|
|-0--0000--12-12-12--8-8-8-8-10-10-7-7-7-7-|
|-0--0000----------------------------------|
     ....

(0:29)
|-----------------------------|
|-----------------------------|
|------9-9-9~-------9-9-9-9-9-|
|------x-x-x--------x-x-x-x-x-|
|-0000-7-7-7~-0-0-0-7-7-7-7-7-|
|-0000--------0-0-0-----------|
  ....        . . .

(0:32)
|------------------------------------------|
|------------------------------------------|
|----------14-14-14-10-10-10-12-12-9-9-9-9-|
|-0---------x--x--x--x--x--x--x--x-x-x-x-x-|
|-0--0000--12-12-12--8-8-8-8-10-10-7-7-7-7-|
|-0--0000----------------------------------|
     ....

(0:35)
|--------------------------------------------|
|--------------------------------------------|
|-10-10-10-10-10-10-10-10-12-12-12-9-9-9-9-9-|
|--x--x--x--x--x--x--x--x--x--x--x-x-x-x-x-x-|
|--8--8--8--8--8--8--8--8-10-10-10-7-7-7-7-7-|
|--------------------------------------------|

(0:37)
|------------------------------------------|
|------------------------------------------|
|----------14-14-14-10-10-10-12-12-9-9-9-9-|
|-0---------x--x--x--x--x--x--x--x-x-x-x-x-|
|-0--0000--12-12-12--8-8-8-8-10-10-7-7-7-7-|
|-0--0000----------------------------------|
     ....

(0:40)
|-----------------------------|
|-----------------------------|
|------9-9-9~-------9-9-9-9-9-|
|------x-x-x--------x-x-x-x-x-|
|-0000-7-7-7~-0-0-0-7-7-7-7-7-|
|-0000--------0-0-0-----------|
  ....        . . .

(0:43)
|------------------------------------------|
|------------------------------------------|
|----------14-14-14-10-10-10-12-12-9-9-9-9-|
|-0---------x--x--x--x--x--x--x--x-x-x-x-x-|
|-0--0000--12-12-12--8-8-8-8-10-10-7-7-7-7-|
|-0--0000----------------------------------|
     ....

(0:45)
|--------------------------------------------|
|--------------------------------------------|
|-10-10-10-10-10-10-10-10-12-12-12-9-9-9-9-9-|
|--x--x--x--x--x--x--x--x--x--x--x-x-x-x-x-x-|
|--8--8--8--8--8--8--8--8-10-10-10-7-7-7-7-7-|
|--------------------------------------------|


VERSE 3--- [repeat VERSE 1, but with a little different strumming somewhere in there]
(0:48-1:09)
"I'm not a monster...
I'm just a sick man...
Who would do anything to get his soul back...
I'm not a monster...
I'm just a sick man...
Who would do anything to get his sould back..."


repeat LITTLE SOLO THINGY---
(1:09-1:11)


VERSE 4--- [repeat VERSE 2, but add a second "Don't you love what I've become?" riff]
(1:12-1:35)
"You should probably just cover your eyes now...
I'll have to warn you...
This is gonna hurt, really hurt...
I'm one of them now...
Quarantine me...
I'm infected...
Quarantine me...
Don't you love what I've become?...
Don't you love what I've become?..."


BREAKDOWN NUMBER ONE---
Guitar 1:
(1:36)
|----------------------------------------------------------------------|
|----------------------------------------------------------------------|
|----------------------------------------------------------------------|
|-0--------------------------------------------------------------------|
|-0-00000~--0-0~--0-0~--000000000~--0-0~--0-0~--000000000~--0-0~--0-0~-|
|-0-00000~--0-0~--0-0~--000000000~--0-0~--0-0~--000000000~--0-0~--0-0~-|
    .....   . .   . .   .........   . .   . .   .........   . .   . .

(1:44)
|---------------------------------|
|---------------------------------|
|-7-7-7-7-7-7-7-7-9-9-9-6-6-6-6-6-|
|-x-x-x-x-x-x-x-x-x-x-x-x-x-x-x-x-|
|-5-5-5-5-5-5-5-5-7-7-7-4-4-4-4-4-|
|---------------------------------|

(1:47)
"I don't blame you for wanting me dead..."
|------------------------------|
|------------------------------|
|------------------------------|
|-0----------------------------|
|-0-00000~--0--8p0-8p0-4p0-4p0-|
|-0-00000~--0------------------|
    .....   .

(1:49)
"I don't blame you for wanting me dead..."
|------------------------------|
|------------------------------|
|------------------------------|
|-0----------------------------|
|-0-00000~--0--8p0-8p0-4p0-4p0-|
|-0-00000~--0------------------|
    .....   .

(1:52)
"I don't blame you for wanting me dead..."
|------------------------------|
|------------------------------|
|------------------------------|
|-0----------------------------|
|-0-00000~--0--8p0-8p0-4p0-4p0-|
|-0-00000~--0------------------|
    .....   .

(1:55)
"I'm one of them now..."
[slow down]
|---------------------------------|
|---------------------------------|
|-7-7-7-7-7-7-7-7-9-9-9-6-6-6-6-6-|
|-x-x-x-x-x-x-x-x-x-x-x-x-x-x-x-x-|
|-5-5-5-5-5-5-5-5-7-7-7-4-4-4-4-4-|
|---------------------------------|

(1:58)
"I don't blame you for wanting me dead..."
|------------------------------|
|------------------------------|
|------------------------------|
|-0----------------------------|
|-0-00000~--0--8p0-8p0-4p0-4p0-|
|-0-00000~--0------------------|
    .....   .

(2:01)
"I don't blame you for wanting me dead..."
|------------------------------|
|------------------------------|
|------------------------------|
|-0----------------------------|
|-0-00000~--0--8p0-8p0-4p0-4p0-|
|-0-00000~--0------------------|
    .....   .

(2:04)
"I don't blame you for wanting me dead..."
|--------------------------------|
|--------------------------------|
|--------------------------------|
|-0------------------------------|
|-0-00000~--00000000000000000000-|
|-0-00000~--00000000000000000000-|
    .....   ....................

(2:08)
"I'm one of them now..."
|---------------------------------|
|---------------------------------|
|-7-7-7-7-7-7-7-7-9-9-9-6-6-6-6-6-|
|-x-x-x-x-x-x-x-x-x-x-x-x-x-x-x-x-|
|-5-5-5-5-5-5-5-5-7-7-7-4-4-4-4-4-|
|---------------------------------|

Guitar 2:
(1:36)
|----------------------------------------------------------------------|
|----------------------------------------------------------------------|
|----------------------------------------------------------------------|
|-0--------------------------------------------------------------------|
|-0-00000~--0-0~--0-0~--000000000~--0-0~--0-0~--000000000~--0-0~--0-0~-|
|-0-00000~--0-0~--0-0~--000000000~--0-0~--0-0~--000000000~--0-0~--0-0~-|
    .....   . .   . .   .........   . .   . .   .........   . .   . .

(1:44)
|--------------------------------------------|
|--------------------------------------------|
|-10-10-10-10-10-10-10-10-12-12-12-9-9-9-9-9-|
|--x--x--x--x--x--x--x--x--x--x--x-x-x-x-x-x-|
|--8--8--8--8--8--8--8--8-10-10-10-7-7-7-7-7-|
|--------------------------------------------|

(1:47)
|----------------------------|
|----------------------------|
|----------------------------|
|-0--------------------------|
|-0-00000~--0-0-0-0~--0-0-0~-|
|-0-00000~--0-0-0-0~--0-0-0~-|
    .....   . . . .   . . .

(1:49)
|----------------------------|
|----------------------------|
|----------------------------|
|-0--------------------------|
|-0-00000~--0-0-0-0~--0-0-0~-|
|-0-00000~--0-0-0-0~--0-0-0~-|
    .....   . . . .   . . .

(1:52)
|----------------------------|
|----------------------------|
|----------------------------|
|-0--------------------------|
|-0-00000~--0-0-0-0~--0-0-0~-|
|-0-00000~--0-0-0-0~--0-0-0~-|
    .....   . . . .   . . .

(1:55)
[slow down]
|--------------------------------------------|
|--------------------------------------------|
|-10-10-10-10-10-10-10-10-12-12-12-9-9-9-9-9-|
|--x--x--x--x--x--x--x--x--x--x--x-x-x-x-x-x-|
|--8--8--8--8--8--8--8--8-10-10-10-7-7-7-7-7-|
|--------------------------------------------|

(1:58)
|----------------------------|
|----------------------------|
|----------------------------|
|-0--------------------------|
|-0-00000~--0-0-0-0~--0-0-0~-|
|-0-00000~--0-0-0-0~--0-0-0~-|
    .....   . . . .   . . .

(2:01)
|----------------------------|
|----------------------------|
|----------------------------|
|-0--------------------------|
|-0-00000~--0-0-0-0~--0-0-0~-|
|-0-00000~--0-0-0-0~--0-0-0~-|
    .....   . . . .   . . .

(2:04)
|----------------------------|
|----------------------------|
|----------------------------|
|-0--------------------------|
|-0-00000~--0-0-0-0~--0-0-0~-|
|-0-00000~--0-0-0-0~--0-0-0~-|
    .....   . . . .   . . .

(2:08)
|--------------------------------------------|
|--------------------------------------------|
|-10-10-10-10-10-10-10-10-12-12-12-9-9-9-9-9-|
|--x--x--x--x--x--x--x--x--x--x--x-x-x-x-x-x-|
|--8--8--8--8--8--8--8--8-10-10-10-7-7-7-7-7-|
|--------------------------------------------|


BRIDGE---
Both guitars:
(2:11)
|-----------------------------------------------------------------|
|-----------------------------------------------------------------|
|-----------------------------------------------------------------|
|-3-3-3-3-3-3-3-3-2-2-2-2-2-2-2-2-2-2-2-2-2-2-2-2-0-0-0-0-0-0-0-0-|
|-0-0-0-0-0-0-0-0-0-0-0-0-0-0-0-0-3-3-3-3-3-3-3-3-2-2-2-2-2-2-2-2-|
|-----------------------------------------------------------------|
    . . . . . . . . . . . . . . . . . . . . . . . . . . . . . . .

(2:17)
|-----------------------------------------------------------------|
|-----------------------------------------------------------------|
|-----------------------------------------------------------------|
|-3-3-3-3-3-3-3-3-2-2-2-2-2-2-2-2-2-2-2-2-2-2-2-2-0-0-0-0-0-0-0-0-|
|-0-0-0-0-0-0-0-0-0-0-0-0-0-0-0-0-3-3-3-3-3-3-3-3-2-2-2-2-2-2-2-2-|
|-----------------------------------------------------------------|
    . . . . . . . . . . . . . . . . . . . . . . . . . . . . . . .

(2:22)
"I feel it in my blood..."
|-----------------------------------------------------------------|
|-----------------------------------------------------------------|
|-----------------------------------------------------------------|
|-3-3-3-3-3-3-3-3-2-2-2-2-2-2-2-2-2-2-2-2-2-2-2-2-0-0-0-0-0-0-0-0-|
|-0-0-0-0-0-0-0-0-0-0-0-0-0-0-0-0-3-3-3-3-3-3-3-3-2-2-2-2-2-2-2-2-|
|-----------------------------------------------------------------|
    . . . . . . . . . . . . . . . . . . . . . . . . . . . . . . .

(2:28)
"now. It's turning me, it's turning me..."
|-----------------------------------------------------------------|
|-----------------------------------------------------------------|
|-----------------------------------------------------------------|
|-3-3-3-3-3-3-3-3-2-2-2-2-2-2-2-2-2-2-2-2-2-2-2-2-0-0-0-0-0-0-0-0-|
|-0-0-0-0-0-0-0-0-0-0-0-0-0-0-0-0-3-3-3-3-3-3-3-3-2-2-2-2-2-2-2-2-|
|-----------------------------------------------------------------|
    . . . . . . . . . . . . . . . . . . . . . . . . . . . . . . .

(2:33)
"I feel it in my blood..."
|-----------------------------------------------------------------|
|-----------------------------------------------------------------|
|-----------------------------------------------------------------|
|-3-3-3-3-3-3-3-3-2-2-2-2-2-2-2-2-2-2-2-2-2-2-2-2-0-0-0-0-0-0-0-0-|
|-0-0-0-0-0-0-0-0-0-0-0-0-0-0-0-0-3-3-3-3-3-3-3-3-2-2-2-2-2-2-2-2-|
|-----------------------------------------------------------------|
    . . . . . . . . . . . . . . . . . . . . . . . . . . . . . . .

(2:39)
"now. It's turning me..."
|-----------------------------------------------------------------|
|-----------------------------------------------------------------|
|-----------------------------------------------------------------|
|-3-3-3-3-3-3-3-3-2-2-2-2-2-2-2-2-2-2-2-2-2-2-2-2-0-0-0-0-0-0-0-0-|
|-0-0-0-0-0-0-0-0-0-0-0-0-0-0-0-0-3-3-3-3-3-3-3-3-2-2-2-2-2-2-2-2-|
|-----------------------------------------------------------------|
    . . . . . . . . . . . . . . . . . . . . . . . . . . . . . . .

(2:44)
"I feel it in my blood..."
|-----------------------------------------------------------------|
|-----------------------------------------------------------------|
|-----------------------------------------------------------------|
|-----------------------------------------------------------------|
|---------------------------------3-3-3-3-3-3-3-3-2-2-2-2-2-2-2-2-|
|-3-3-3-3-3-3-3-3-2-2-2-2-2-2-2-2---------------------------------|

(2:50)
"now. It's turning me, it's turning me..."
|-----------------------------------------------------------------|
|-----------------------------------------------------------------|
|-----------------------------------------------------------------|
|-----------------------------------------------------------------|
|---------------------------------3-3-3-3-3-3-3-3-2-2-2-2-2-2-2-2-|
|-3-3-3-3-3-3-3-3-2-2-2-2-2-2-2-2---------------------------------|

(2:55)
"I feel it in my blood..."
|-----------------------------------------------------------------|
|-----------------------------------------------------------------|
|-----------------------------------------------------------------|
|-----------------------------------------------------------------|
|---------------------------------3-3-3-3-3-3-3-3-2-2-2-2-2-2-2-2-|
|-3-3-3-3-3-3-3-3-2-2-2-2-2-2-2-2---------------------------------|

(3:01)
|-----------------------------------------------------------------|
|-----------------------------------------------------------------|
|-----------------------------------------------------------------|
|-----------------------------------------------------------------|
|---------------------------------3-3-3-3-3-3-3-3-2-2-2-2-2-2-2-2-|
|-3-3-3-3-3-3-3-3-2-2-2-2-2-2-2-2---------------------------------|

(3:06)
"I feel it in my blood..."
|-----------------------------------------------------------------|
|-----------------------------------------------------------------|
|-----------------------------------------------------------------|
|-----------------------------------------------------------------|
|---------------------------------3-3-3-3-3-3-3-3-2-2-2-2-2-2-2-2-|
|-3-3-3-3-3-3-3-3-2-2-2-2-2-2-2-2---------------------------------|

(3:12)
|-----------------------------------------------------------------|
|-----------------------------------------------------------------|
|---------------------------------5-5-5-5-5-5-5-5-8-8-8-8-8-8-8-8-|
|---------------------------------x-x-x-x-x-x-x-x-x-x-x-x-x-x-x-x-|
|---------------------------------3-3-3-3-3-3-3-3-6-6-6-6-6-6-6-6-|
|-3-3-3-3-3-3-3-3-2-2-2-2-2-2-2-2---------------------------------|


BREAKDOWN NUMBER TWO---
Both guitars:
(3:17-3:48)
"You better lock the doors and hide..."
|--------------------------------------------|
|--------------11----11----11----11----11----|
|-----------14----14----14----14----14----14-|
|--------------------------------------------|
|-0-0-0-0-0----------------------------------|
|-0-0-0-0-0----------------------------------|
  . . . . .

Just repeat the process above 8 TIMES, slowing down each time.


OUTRO---
Both guitars:
(3:48)
|--------------------------------------------------------------|
|--------------------------------------------------------------|
|--------------------------------------------------------------|
|-8--8-8-8--8-8--8-8-8-8-8-8-8--7--7-7-7--7-7--7-7-7-7-777-7\\-|
|-8--8-8-8--8-8--8-8-8-8-8-8-8--7--7-7-7--7-7--7-7-7-7-777-7\\-|
|-8--8-8-8--8-8--8-8-8-8-8-8-8--7--7-7-7--7-7--7-7-7-7-777-7\\-|

(3:59)
|-------|
|-------|
|-0~~~~-|
|-0~~~~-|
|-0~~~~-|
|----------|
Tap to rate this tab
# A B C D E F G H I J K L M N O P Q R S T U V W X Y Z