Song name
# A B C D E F G H I J K L M N O P Q R S T U V W X Y Z

Greeley Estates - If I Could Be Frank Youre Ugly tab

 alright so only one guy posted this tab and its sound good but i think the chorus is 
so i'm going to post it and put my chorus down i found out and you guys can decide for 
 whos is better

Tuning C G C F A D


              Intro

D|----------------------------------------------------------------------|
A|----------------------------------------------------------------------|
F|----------------------------------------------------------------------|
C|----------------------------------------------------------------------|
G|-88888888--7777777--1212121212121212--00000000--33333333--------------|
C|------------------------------------------------------------222-3-22--|

A|----------|
F|----------|
C|----------|
G|--00000~--|
C|--00000~--|


           Verse

D|-------------------------------------|---------------------------------|
A|-------------------------------------|---------------------------------|
F|-------------------------------------|---------------------------------|
C|-------------------------------------|---------------------------------|2x
G|----5-------5-----5------5------5----|---------5-------8p0---8p0--8h10-|
C|-/-----0000---000----000----000---/--|--00000-----7h8------0-----------|


        Chorus

D|-----------------------------------------------------|
A|-----------------------------------------------------|
F|--------14------12------14---------14------12-----14-|
C|-----------------------------------------------------|
G|-13-13------13------13------13-13------13------13----|
C|-----------------------------------------------------|


D|----------------------------------------------|
A|----------------------------------------------|
F|--------14------12------14------14------12-14-|
C|-12-12------12------12------10------10--------|
G|----------------------------------------------|
C|----------------------------------------------|

        Bridge

D|----------------------------------------|
A|----------------------------------------|
F|----------------------------------------| 2x
C|----------------------------------------|
G|--000000~---00~---------8p0--8p0--8h10--|
C|--000000~---00~---7h8-------------------|


D|-------------------------------------------------------|
A|-------------------------------------------------------|
F|-------------------------------------------------------|
C|-------------------------------------------------------| 2x
G|--00000~---8p0--8p0---00~---------8p0--8p0--8h10-------|
C|--00000~--------------00~---7h8------------------------|


D|------|---------------|---------|
A|------|---------------|---------|
F|------|---------------|---------|
C|--8---|---0---10---8--|----0~---|
G|--8---|---0---10---8--|----0~---|
C|--8---|---0---10---8--|----0~---|

Thats it i think thats the right chorus if u play it on time with the song it sounds 
to me greeley estates rocks and everyone keep rocking peace
Tap to rate this tab
# A B C D E F G H I J K L M N O P Q R S T U V W X Y Z