Song name
# A B C D E F G H I J K L M N O P Q R S T U V W X Y Z

Greeley Estates - Through Waiting tab

Title: Through Waiting
Artist: Greeley Estates
Album: Outside Of This
Tabbed by: Mr. Picky
Tuning: Drop D

Please rate and/or leave feedback.

Intro (Play Twice)

e||------------------||
B||------------------||
G||---6----6---------|| \/ |_|
D||---x----x----4----|| /\   |
A||---4h5--4h5--4----||
D||-------------4----||

e||------------------||
B||------------------||
G||------------------||
D||---7-7-----7-7----||
A||---7-7-----7-7----||
D||---7-7-----7-7----||

Verse I (Play Twice)

Palm mute.

e||---------------------------------------||
B||---------------------------------------||
G||---------------------------------------||
D||-9-9-9-9-9-9-9-9----5-5-5-5-5-5-5-5----||
A||-9-9-9-9-9-9-9-9----5-5-5-5-5-5-5-5----||
D||-9-9-9-9-9-9-9-9----5-5-5-5-5-5-5-5----||

e||---------------------------------------||
B||---------------------------------------||
G||---------------------------------------||
D||-9-9-9-9-9-9-9-9----5-5-5-5-7-7-7-7----||
A||-9-9-9-9-9-9-9-9----5-5-5-5-7-7-7-7----||
D||-9-9-9-9-9-9-9-9----5-5-5-5-7-7-7-7----||

Chorus (Play Twice)

e||---------------------------------------||
B||---------------------------------------||
G||---------------------------------------||
D||-5-5-5-5-5-5-5-5----0-0-0-0-0-0-0-0----||
A||-5-5-5-5-5-5-5-5----0-0-0-0-0-0-0-0----||
D||-5-5-5-5-5-5-5-5----0-0-0-0-0-0-0-0----||

e||---------------------------------------||
B||---------------------------------------||
G||---------------------------------------||
D||-9-9-9-9-9-9-9-9----7-7-7-7-7-7-0-0----||
A||-9-9-9-9-9-9-9-9----7-7-7-7-7-7-0-0----||
D||-9-9-9-9-9-9-9-9----7-7-7-7-7-7-0-0----||
                                   . .
Repeat Intro (But play only once)

Repeat Verse

Repeat Chorus

Bridge: 

Strum Once. Let Ring

e||---------------------------------------------||
B||---------------------------------------------||     _
G||---------------------------------------------|| \/  _|
D||-5~---------0~---------9~---------7~---------|| /\ |_
A||-5~---------0~---------9~---------7~---------||
D||-5~---------0~---------9~---------7~---------||

e||---------------------------------------||
B||---------------------------------------||
G||---------------------------------------||
D||-5-5-5-5-5-5-5-5----0-0-0-0-0-0-0-0----||
A||-5-5-5-5-5-5-5-5----0-0-0-0-0-0-0-0----||
D||-5-5-5-5-5-5-5-5----0-0-0-0-0-0-0-0----||
    . . . . . . . .    . . . . . . . .
e||---------------------------------------||
B||---------------------------------------||
G||---------------------------------------||
D||-9-9-9-9-9-9-9-9----7-7-7-7-7-7-7-7----||
A||-9-9-9-9-9-9-9-9----7-7-7-7-7-7-7-7----||
D||-9-9-9-9-9-9-9-9----7-7-7-7-7-7-7-7----||
    . . . . . . . .    . . . . . . . .

e||---------------------------------------||
B||---------------------------------------||
G||---------------------------------------||
D||-5-5-5-5-5-5-5-5----0-0-0-0-0-0-0-0----||
A||-5-5-5-5-5-5-5-5----0-0-0-0-0-0-0-0----||
D||-5-5-5-5-5-5-5-5----0-0-0-0-0-0-0-0----||
    . . . . . . . .    . . . . . . . .
e||---------------------------------------||
B||---------------------------------------||
G||---------------------------------------||
D||-9-9-9-9-9-9-9-9----7-7-7-7-7-7-7-7----||
A||-9-9-9-9-9-9-9-9----7-7-7-7-7-7-7-7----||
D||-9-9-9-9-9-9-9-9----7-7-7-7-7-7-7-7----||
    . . . . . . . .    . . . . 

Pre Chorus

e||---------------------------------------------||
B||---------------------------------------------||
G||---------------------------------------------||
D||-5~---------0~---------9~---------7~---------||
A||-5~---------0~---------9~---------7~---------||
D||-5~---------0~---------9~---------7~---------||

Repeat Chorus

Outro

e||------------------||
B||------------------||
G||---6----6---------|| \/ |_|
D||---x----x----4----|| /\   |
A||---4h5--4h5--4----||
D||-------------4----||

e||------------------------||
B||------------------------||
G||------------------------||
D||---7-7-----7-7----0~----||
A||---7-7-----7-7----0~----||
D||---7-7-----7-7----0~----||

--End--
Tap to rate this tab
 
# A B C D E F G H I J K L M N O P Q R S T U V W X Y Z