Song name
# A B C D E F G H I J K L M N O P Q R S T U V W X Y Z

Greeley Estates - Outside Of This tab

Help us improve GuitareTab! Take a short survey!
Greeley Estates
Outside of This

Intro Part 1
Guitar 1
e|-------------------------------------------------777--|
B|-7-77777-77777-777888-[3 times]-7-77777-77777-777xxx--|
G|-9-99999-99999-999999-----------9-99999-99999-999999--|
D|------------------------------------------------------|
A|------------------------------------------------------|
D|------------------------------------------------------|

Guitar 2
e|------------------------------------------------------|
B|------------------------------------------------------|
G|------------------------------------------------------|
D|------------------------------------------------------|
A|------------------00----------000---------------------|
E|------------------00----------000---------------------|
                    **          ***
Intro Part 2
Guitar 1&2
e|------------------------------------------------------|
B|------------------------------------------------------|
G|------------------------------------------------------|
D|------------------------------------------------------|
A|-0-0-0--7/8-8-8------3-3-3--2-2-2---------------------|
D|-0-0-0--7/8-8-8-x3---3-3-3--2-2-2---------------------|

Verse
Guitar 1 or 2
e|------------------------------------------------------|
B|------------------------------------------------------|
G|--------9h10p9-------12/10/9/10/9---------------------|
D|--------------10-----------------10-------------------|
A|-0-0-0----------x3------------------------------------|
D|-0-0-0------------------------------------------------|
   * * *
e|------------------------------------------------------|
B|------------------------------------------------------|
G|------------------------------------------------------|
D|-----------9h10p9-------------------------------------|
A|-3-3-3-----------10--------3~-2~----------------------|
D|-3-3-3--------------x3-----3~-2~----------------------|
   *  *  *

Guitar 1 & 2
Chorus
e|------------------------------------------------------|
B|------------------------------------------------------|
G|------------------------------------------------------|
D|------------------------------------------------------|
A|--000000000000--88888888-777777-----------------------|
E|--000000000000--88888888-777777--333-x2---------------|
                                   ***
                                
Repeat Verse

Guitar 1
Bridge
e|------------------------------------------------------|
B|------------------------------------------------------|
G|------------------------------------15-15-15-15-15-15-|
D|------------------------------------X--X--X--X--X--X--|
A|-0-0-00000-0-0-00000-0-0-00000--0-0-13-13-13-13-13-13-|
D|-0-0-00000-0-0-00000-0-0-00000--0-0---------x4--------|
   * * ***** * * ***** * * *****

Repeat Intro Part 1

Repeat Chorus x 2

Repeat Intro Part 2
Related for Outside Of This tab