Song name
# A B C D E F G H I J K L M N O P Q R S T U V W X Y Z

Greeley Estates - Dont Look Away tab

Help us improve GuitareTab! Take a short survey!
This is a band from portland,on the indie label sub-pop and you can check them out at 
or http://www.subpop.com/bands/helio/love_and_distance/

Artist: The Helio Sequence
Song: Don't Look Away
Album: Love and Distance
Label: Sub-Pop

Intro (Keyboards):
--15-15-15-1515-13-13-13-1313-12-12-12-12-12-1212-|
--------------------------------------------------|
--------------------------------------------------|  x4 And Then
--------------------------------------------------|
--------------------------------------------------|
--------------------------------------------------|
Guitar:
-------------------------------------------------|
-------------------------------------------------|
-------------------------------------------------|
9--9--9--7-7/14-14-1414-14-14--------------------| x4 And Then
9--9--9--7-7/14-14-1414-14-14--------------------|
7--7--7--5-5/12-12-1212-12-12--------------------|

Verse (Keyboard):
--15-15-15-1515-13-13-13-1313-12-12-12-12-12-1212-|
--------------------------------------------------|
--------------------------------------------------|  x4 And Then
--------------------------------------------------|
--------------------------------------------------|
--------------------------------------------------|

Chorus (On Guitar w/ Keyboard in Background)
-------------------------------------------------|
-------------------------------------------------|
-------------------------------------------------|
9--9--9--7-7/14-14-1414-14-14--------------------| x4 And Then
9--9--9--7-7/14-14-1414-14-14--------------------|
7--7--7--5-5/12-12-1212-12-12--------------------|


I still havn't tabbed the part where he sings "It Starts With a Tv..." Yet
But after that it's:

Verse:
Verse (Keyboard):
--15-15-15-1515-13-13-13-1313-12-12-12-12-12-1212-|
--------------------------------------------------|
--------------------------------------------------|  x4 And Then
--------------------------------------------------|
--------------------------------------------------|
--------------------------------------------------|

Chorus (On Guitar w/ Keyboard in Background)
-------------------------------------------------|
-------------------------------------------------|
-------------------------------------------------|
9--9--9--7-7/14-14-1414-14-14--------------------| x4
9--9--9--7-7/14-14-1414-14-14--------------------|
7--7--7--5-5/12-12-1212-12-12--------------------|


Then The Part thats untabbed again...
And then the song ends
Related for Dont Look Away tab