Song name
# A B C D E F G H I J K L M N O P Q R S T U V W X Y Z

Greeley Estates - Until Tomorrow tab

One of my favorites from paramore..
It's not 100% accurate but i hope it sounds good. well, the song was played with piano..
i just made a guitar version of it. hope you like it. :)

Stardard tuning.. Capo on 2nd fret.

UNTIL TOMORROW



e 4-3-------            e 4-3-----8-6-|
B ----4-4---            B ----4-------|
G -----3-3-- x3  then   G -----3------|
D ----------            D ------------|
A ----------            A ------------|
E ----------            E ------------|


(tab enters in word "climb")
          C                Am             G             D
e|----------0-----|---------0-----|---------3-----|---------2-----|
B|--1---1-----1---|-1---1-----1---|-3---3-----3---|-3---3-----3---|
G|----0--------0--|---2--------2--|---0--------0--|---2--------2--|
D|------2---------|-----2---------|-----0---------|-----0---------|
A|--3-------3-----|-0-------0-----|-2-------2-----|-0-------0-----|
E|----------------|---------------|---------------|---------------|
 i climb..i fall   reaching..but i lay..all alone  sweating..blood


Do the same tab pattern: ( | <- divisions)

If I could find out how | to make you listen now because Im | starving for you here |
my undying love

        C               Am              G              D
e|----------------------------------------------------------------|
B|-1---1---1---1---1---1---1---1---3---3---3---3---3---3---3---3*-|
G|---0---0---0---0---2---2---2---2---0---0---0---0---2---2---2----|
D|----------------------------------------------------------------|
A|-3---3---3---3---0---0---0---0---2---2---2---2---0---0---0---0*-|
E|----------------------------------------------------------------|
 and I.............................. I wil................(*-let ring)


 (strum the chords, gentle and slow)
C                  D
Breathe for love tomorrow
              Am             G
Cause there's no hope for today
C                   D
Breathe for love tomorrow
              Am            G
Cause maybe theres another way












then..
          C                Am             G             D
e|----------0-----|---------0-----|---------3-----|---------2-----|-2------|
B|--1---1-----1---|-1---1-----1---|-3---3-----3---|-3---3-----3---|---3-3--|
G|----0--------0--|---2--------2--|---0--------0--|---2--------2--|----2-2-|
D|------2---------|-----2---------|-----0---------|-----0---------|--------|
A|--3-------3-----|-0-------0-----|-2-------2-----|-0-------0-----|-0----0-|
E|----------------|---------------|---------------|---------------|--------|
 i climb..i fall  into your..but i lay.. all alone sweating..blood  

-----------------
im just a beginner in tabbing.. so dont be so harsh with your comments. im not still
in playing guitar, i know I have a lot things to do. But I played with heart. And I love
Im doing. :)

just leave your comments and help me out in fixing if there's any problem. :)

This submittion is for my friends.. anna, april, mariel, niera, thea.. for my best
Kim.. for my Band Last Hour with Thea, Mich, Aiko and Ivy. And for Charmaine because she
this song and she's the one who introduce it to me.. :) Gagraduate na ko! wooh! babay 
labyu Oweit!
Tap to rate this tab
# A B C D E F G H I J K L M N O P Q R S T U V W X Y Z